Rusty Cage - Soundgarden
00:00 / 00:00
Tabs and lyrics
Tunning: Standard (E A D G B e)
Gtr I (B A D G B E) - 'Untitled'
Gtr II (B A D G B E) - 'Untitled'
Gtr III (B A D G B E) - 'Untitled'


Moderately Fast Rock Q=190
4/4
Gtr I
H Q E E E E E E H +W
|---------------|-------------------|------------------|
|---------------|-------------------|------------------|
|---------14s16-|-------14h16-14----|-(14)-------------|
|---------------|-------------------|------------------|
|---------------|-14h16-------------|------------------|
|---------------|-------------------|------------------|
|
| Gtr II
| W W H Q E E
|---------------|-------------------|------------------|
|---------------|-------------------|------------------|
|---------------|-------------------|------------------|
|---------------|-------------------|------------------|
|---------------|-------------------|------------12s14-|
|---------------|-------------------|------------------|

+W +H. E E
|-----------------------|-------------------||
|-----------------------|-------------------||
|-(14)------------------|-(14)------14s16---||
|-----------------------|-------------------||
|-----------------------|-------------------||
|-----------------------|-------------------||
|
| E E E E E Q. +W
|-----------------------|-------------------||
|-----------------------|-------------------||
|--14h16-------14h16----|-(16)--------------||
|-----------------------|-------------------||
|--------12s14----------|-------------------||
|-----------------------|-------------------||

E E E E H +W
||----------------------|-----------------|
||o---------------------|-----------------|
||----------14h16-14----|-(14)------------|
||----------------------|-----------------|
||o--14h=16-------------|-----------------|
||----------------------|-----------------|
|
| +W +H. E E
||----------------------|-----------------|
||o---------------------|-----------------|
||--(16)----------------|-(16)------------|
||----------------------|-----------------|
||o---------------------|-----------12s14-|
||----------------------|-----------------|

+W +H. E E
|-----------------------|-------------------||
|-----------------------|------------------o||
|-(14)------------------|-(14)------14s16---||
|-----------------------|-------------------||
|-----------------------|------------------o||
|-----------------------|-------------------||
|
| E E E E E Q. +W
|-----------------------|-------------------||
|-----------------------|------------------o||
|--14h16-------14h16----|-(16)--------------||
|-----------------------|-------------------||
|--------12s14----------|------------------o||
|-----------------------|-------------------||


E E E E H
|-------------------------|
|-------------------------|
|---------14h16-14--------|
|-------------------------|
|--14h=16-----------------|
|-------------------------|
|
| +H. E E
|-------------------------|
|-------------------------|
|-(16)--------------------|
|-------------------------|
|-------------------12s14-|
|-------------------------|


+H. E E E E E E H
|---------------------------|-------------------------|
|---------------------------|-------------------------|
|-(14)----------------14s16-|---------14h16-14--------|
|---------------------------|-------------------------|
|---------------------------|--14h=16-----------------|
|---------------------------|-------------------------|
|
| E E E E E Q. +H. E E
|---------------------------|-------------------------|
|---------------------------|-------------------------|
|--14h16-------14h16--------|-(16)--------------------|
|---------------------------|-------------------------|
|--------12s14--------------|-------------------12s14-|
|---------------------------|-------------------------|


Gtrs I, III
+H. +Q
|------------------------------|
|------------------------------|
|-(14)----------------(14)\----|
|------------------------------|
|------------------------------|
|----------------------10s==12-|
| H Q E E
|
| E E E E E Q.
|------------------------------|
|------------------------------|
|--14h16-------14h16-----------|
|------------------------------|
|--------12s14-----------------|
|------------------------------|


Gtr III
E E E E Q E E E E E E E E E E
|----------------------------|-------------------------|
|----------------------------|-------------------------|
|----------------------------|-------------------------|
|----------------------------|-------------------------|
|---------12h14--12----------|-12h14-------12h14-------|
|--12h=14--------------10s12-|-------10s12-------10s12-|
|
| +H +Q Q W
|----------------------------|-------------------------|
|----------------------------|-------------------------|
|-(16)----------(16)\--------|-------------------------|
|----------------------------|-------------------------|
|----------------------------|-------------------------|
|----------------------------|-------------------------|


1s
E E E E Q E E E E E E E E E E 7x
||------------------------|--------------------------||-|
||o-----------------------|-------------------------o||-|
||------------------------|--------------------------||-|
||------------------------|--------------------------||-|
||o-------12h14-12--------|-12h14-------12h14-------o||-|
||--12h14-----------10s12-|-------10s12-------10s12--||-|


t, 2nd Verses
E E E E Q E E E E E E E E E E E E E E Q E E
||------------------------|-------------------------|-----------------------|
||o-----------------------|-------------------------|-----------------------|
||------------------------|-------------------------|-----------------------|
||------------------------|-------------------------|-----------------------|
||o-------12h14-12--------|-12h14-------12h14-------|-------12h14-12--------|
||--12h14-----------10s12-|-------10s12-------10s12-|-12h14-----------10s12-|


E E E E E E E E E E E E Q E E
|-------------------------|-----------------------|
|-------------------------|-----------------------|
|-------------------------|-----------------------|
|-------------------------|-----------------------|
|-12h14-------12h14-------|-------12h14-12--------|
|-------10s12-------10s12-|-12h14-----------10s12-|


E E E E E E E E E E E E Q E E E E E E E E E E
|-------------------------|-----------------------|-------------------------|
|-------------------------|-----------------------|-------------------------|
|-------------------------|-----------------------|-------------------------|
|-------------------------|-----------------------|-------------------------|
|-12h14-------12h14-------|-------12h14-12--------|-12h14-------12h14-------|
|-------10s12-------10s12-|-12h14-----------10s12-|-------10s12-------10s12-|


E E E E Q E E E E E E E E E E
|-----------------------|-------------------------|
|-----------------------|-------------------------|
|-----------------------|-------------------------|
|-----------------------|-------------------------|
|-------12h14-12--------|-12h14-------12h14-------|
|-12h14-----------10s12-|-------10s12-------10s12-|


E E E E Q E E E E E E E E E E
|-----------------------|-------------------------|
|-----------------------|-------------------------|
|-----------------------|-------------------------|
|-----------------------|-------------------------|
|-------12h14-12--------|-12h14-------12h14-------|
|-12h14-----------10s12-|-------10s12-------10s12-|


E E E E Q E E E E E E E E E E
|-----------------------|-------------------------|
|-----------------------|-------------------------|
|-----------------------|-------------------------|
|-----------------------|-------------------------|
|-------12h14-12--------|-12h14-------12h14-------|
|-12h14-----------10s12-|-------10s12-------10s12-|





E E E E Q E E E E E E E E E E
|-----------------------|-------------------------|
|-----------------------|-------------------------|
|-----------------------|-------------------------|
|-----------------------|-------------------------|
|-------12h14-12--------|-12h14-------12h14-------|
|-12h14-----------10s12-|-------10s12-------10s12-|


E E E E Q E E E E E E E E E E
|-----------------------|-------------------------|
|-----------------------|-------------------------|
|-----------------------|-------------------------|
|-----------------------|-------------------------|
|-------12h14-12--------|-12h14-------12h14-------|
|-12h14-----------10s12-|-------10s12-------10s12-|


E E E E Q E E E E E E E E E E
|-----------------------|-------------------------|
|-----------------------|-------------------------|
|-----------------------|-------------------------|
|-----------------------|-------------------------|
|-------12h14-12--------|-12h14-------12h14-------|
|-12h14-----------10s12-|-------10s12-------10s12-|


E E E E Q E E E E E E E E E E
|-----------------------|-------------------------|
|-----------------------|-------------------------|
|-----------------------|-------------------------|
|-----------------------|-------------------------|
|-------12h14-12--------|-12h14-------12h14-------|
|-12h14-----------10s12-|-------10s12-------10s12-|


E E E E Q E E E E E E E E E E
|-----------------------|-------------------------|
|-----------------------|-------------------------|
|-----------------------|-------------------------|
|-----------------------|-------------------------|
|-------12h14-12--------|-12h14-------12h14-------|
|-12h14-----------10s12-|-------10s12-------10s12-|


E E E E Q E E E E E E E E E E
|-----------------------|-------------------------|
|-----------------------|-------------------------|
|-----------------------|-------------------------|
|-----------------------|-------------------------|
|-------12h14-12--------|-12h14-------12h14-------|
|-12h14-----------10s12-|-------10s12-------10s12-|


E E E E Q E E E E E E E E E E
|-----------------------|-------------------------|
|-----------------------|-------------------------|
|-----------------------|-------------------------|
|-----------------------|-------------------------|
|-------12h14-12--------|-12h14-------12h14-------|
|-12h14-----------10s12-|-------10s12-------10s12-|


Q Q Q Q W +H.. E
|-----------------|-----------|---------------|
|-----------------|-----------|---------------|
|-----------------|-----------|---------------|
|-----------------|-----------|---------------|
|-----------------|-----------|---------------|
|-15--15--12\--7--|-10--------|-(10)--------6-|


1.
+E E E E E E Q Q H +Q
|------------------|---------------|
|------------------|---------------|
|------------------|---------------|
|------------------|---------------|
|------------------|---------------|
|-(6)-6-5-5-3-3-0--|-3--3----(3)\--|


E E E E Q E E E E E E E E E E
|-----------------------|-------------------------|
|-----------------------|-------------------------|
|-----------------------|-------------------------|
|-----------------------|-------------------------|
|-------12h14-12--------|-12h14-------12h14-------|
|-12h14-----------10s12-|-------10s12-------10s12-|


E E E E Q E E E E E E E E E E
|-----------------------|-------------------------|
|-----------------------|-------------------------|
|-----------------------|-------------------------|
|-----------------------|-------------------------|
|-------12h14-12--------|-12h14-------12h14-------|
|-12h14-----------10s12-|-------10s12-------10s12-|


E E E E Q E E E E E E E E E E
|-----------------------|-------------------------|
|-----------------------|-------------------------|
|-----------------------|-------------------------|
|-----------------------|-------------------------|
|-------12h14-12--------|-12h14-------12h14-------|
|-12h14-----------10s12-|-------10s12-------10s12-|


E E E E Q E E E E E E E E E E
|-----------------------|--------------------------||
|-----------------------|-------------------------o||
|-----------------------|--------------------------||
|-----------------------|--------------------------||
|-------12h14-12--------|-12h14-------12h14-------o||
|-12h14-----------10s12-|-------10s12-------10s12--||

2.
Q H. +W E E E E E E E E
|------------|------------||-----------------|
|------------|------------||-----------------|
|------------|------------||-----------------|
|------------|------------||-----------------|
|------------|------------||-----------------|
|-3--3-------|-(3)--------||-0-0-0-0-0-0-0-0-|

E E E E E Q E +E E E E E E E E E E E E E Q E
|----------------|-------------------|----------------|
|----------------|-------------------|----------------|
|----------------|-------------------|----------------|
|----------------|-------------------|----------------|
|----------------|-------------------|----------------|
|-0-0-0-0-3-5--6-|-(6)-7-3-0-0-0-0-0-|-0-0-0-0-3-5--6-|


+E E E E E E E E E E E E E Q E +E E E E E E E E
|-------------------|----------------|--------------------|
|-------------------|----------------|--------------------|
|-------------------|----------------|--------------------|
|-------------------|----------------|--------------------|
|-------------------|----------------|--------------------|
|-(6)-7-3-0-0-0-0-0-|-0-0-0-0-3-5--6-|-(6)-7-3-0-0-0-0-0--|


E E E E E Q E +E E E E H +H E Q E +E E H.
|----------------|----------------|---------------|-------------|
|----------------|----------------|---------------|-------------|
|----------------|----------------|---------------|-------------|
|----------------|----------------|---------------|-------------|
|----------------|----------------|---------------|-------0-----|
|-0-0-0-0-3-5--6-|-(6)-7-3-0-0----|-(0)----3-5--6-|-(6)-7-------|


Gtr III
H H E E E E E E E E E E E E E Q E +E E E E E E E E
|----------------|-------------------|------------------|-------------------|
|----------------|-------------------|------------------|-------------------|
|----------------|-------------------|------------------|-------------------|
|----------------|-------------------|------------------|-------------------|
|----------------|-------------------|------------------|-------------------|
|-3-------3------|--0--0-0-0-0-0-0-0-|--0--0-0-0-3-5--6-|-(6)-7-3-0-0-0-0-0-|
|
| Gtr II
| E E E E E Q. +W +W W
|----------------|-------------------|------------------|-------------------|
|----------------|-------------------|------------------|-------------------|
|----------------|-------------------|------------------|-------------------|
|----------------|-------------------|------------------|-------------------|
|-7-5-7-5-7-5----|-(5)---------------|-(5)--------------|-------------------|
|----------------|-------------------|------------------|-------------------|


E E E E E Q E +E E E E H
|----------------|----------------|
|----------------|----------------|
|----------------|----------------|
|----------------|----------------|
|----------------|----------------|
|-0-0-0-0-3-5--6-|-(6)-7-3-0-0----|
|
| W W
|----------------|----------------|
|----------------|----------------|
|----------------|----------------|
|----------------|----------------|
|----------------|----------------|
|----------------|----------------|


+H E Q E +E E H. H H
|---------------|---------------|----------------|
|---------------|---------------|----------------|
|---------------|---------------|----------------|
|---------------|---------------|----------------|
|---------------|-------0-------|----------------|
|-(0)----3-5--6-|-(6)-7---------|-3-------3------|
|
| W W E E E E E Q.
|---------------|---------------|----------------|
|---------------|---------------|----------------|
|---------------|---------------|----------------|
|---------------|---------------|----------------|
|---------------|---------------|-7-5-7-5-7-5----|
|---------------|---------------|----------------|





E E E E E E E E E E E E E Q E +E E E E E E E E
|-------------------|------------------|-------------------|
|-------------------|------------------|-------------------|
|-------------------|------------------|-------------------|
|-------------------|------------------|-------------------|
|-------------------|------------------|-------------------|
|--0--0-0-0-0-0-0-0-|--0--0-0-0-3-5--6-|-(6)-7-3-0-0-0-0-0-|
|
| +W +W W
|-------------------|------------------|-------------------|
|-------------------|------------------|-------------------|
|-------------------|------------------|-------------------|
|-------------------|------------------|-------------------|
|-(5)---------------|-(5)--------------|-------------------|
|-------------------|------------------|-------------------|


E E E E E Q E +E E E E H +H E Q E +E E H.
|----------------|----------------||---------------|-------------|
|----------------|----------------||---------------|-------------|
|----------------|----------------||---------------|-------------|
|----------------|----------------||---------------|-------------|
|----------------|----------------||---------------|-------0-----|
|-0-0-0-0-3-5--6-|-(6)-7-3-0-0----||-(0)----3-5--6-|-(6)-7-------|
|
| W W W W
|----------------|----------------||---------------|-------------|
|----------------|----------------||---------------|-------------|
|----------------|----------------||---------------|-------------|
|----------------|----------------||---------------|-------------|
|----------------|----------------||---------------|-------------|
|----------------|----------------||---------------|-------------|


H H E E E E E E E E E E E E E Q E +E E E E E E E E
|----------------|-------------------|------------------|-------------------|
|----------------|-------------------|------------------|-------------------|
|----------------|-------------------|------------------|-------------------|
|----------------|-------------------|------------------|-------------------|
|----------------|-------------------|------------------|-------------------|
|-3-------3------|--0--0-0-0-0-0-0-0-|--0--0-0-0-3-5--6-|-(6)-7-3-0-0-0-0-0-|
|
| E E E E E Q. +W +W W
|----------------|-------------------|------------------|-------------------|
|----------------|-------------------|------------------|-------------------|
|----------------|-------------------|------------------|-------------------|
|----------------|-------------------|------------------|-------------------|
|-7-5-7-5-7-5----|-(5)---------------|-(5)--------------|-------------------|
|----------------|-------------------|------------------|-------------------|


E E E E E E E E Q Q Q Q W +H.. E
|-----------------|-----------------|-----------|---------------|
|-----------------|-----------------|-----------|---------------|
|-----------------|-----------------|-----------|---------------|
|-----------------|-----------------|-----------|---------------|
|-----------------|-----------------|-----------|---------------|
|-0-0-0-0-0-0-0-0-|-15--15--12\--7--|-10--------|-(10)--------6-|


Freely
H.=H
3/4
+E E E E E E E E E E H. Q E E +Q Q E E +Q
|-------------------|----------------||-----------------|-----------------|
|-------------------|----------------||-----------------|-----------------|
|-------------------|----------------||-----------------|-----------------|
|-------------------|----------------||-----------------|-----------------|
|-------------------|----------------||-----------------|-----------------|
|-(6)-6-5-5-3-3-0-0-|-3-0-3b3.5------||-0----3b3.5-(3)--|-0----5b5.5-(5)--|


A tempo Q=134
5/4 3/4
Q E E Q Q Q Q. E +Q
|---------------------|----------------------|
|---------------------|----------------------|
|---------------------|----------------------|
|---------------------|----------------------|
|---------------------|----------------------|
|-0----0-3b3.5--0--3--|-10b10.5---3b3.5-(3)--|


5/4 3/4
Q E E Q Q Q Q E E +Q
|---------------------------|-------------------|
|---------------------------|-------------------|
|---------------------------|-------------------|
|---------------------------|-------------------|
|---------------------------|-------------------|
|-0----0-3b3.5--0--10b10.5--|-0----3b3.5-(3)----|


5/4
Q E E +Q Q E E +Q Q Q
|-----------------|-----------------------|
|-----------------|-----------------------|
|-----------------|-----------------------|
|-----------------|-----------------------|
|-----------------|-----------------------|
|-0----5b5.5-(5)--|-0----3b3.5-(3)--0--3--|


3/4 5/4
Q. E +Q Q E E Q Q Q
|-------------------|---------------------------|
|-------------------|---------------------------|
|-------------------|---------------------------|
|-------------------|---------------------------|
|-------------------|---------------------------|
|-/10----3b3.5-(3)--|-0----0-3b3.5--0--10b10.5--|


3/4 5/4
Q E E +Q Q E E +Q Q E E +Q Q Q
|-----------------|-----------------|-----------------------|
|-----------------|-----------------|-----------------------|
|-----------------|-----------------|-----------------------|
|-----------------|-----------------|-----------------------|
|-----------------|-----------------|-----------------------|
|-0----3b3.5-(3)--|-0----5b5.5-(5)--|-0----3b3.5-(3)--0--3--|


3/4 5/4
Q. E +Q Q E E Q Q Q
|-------------------|---------------------------|
|-------------------|---------------------------|
|-------------------|---------------------------|
|-------------------|---------------------------|
|-------------------|---------------------------|
|-/10----3b3.5-(3)--|-0----0-3b3.5--0--10b10.5--|


3/4 5/4
Q E E +Q Q E E +Q Q E E +Q Q Q
|-----------------|-----------------|-----------------------|
|-----------------|-----------------|-----------------------|
|-----------------|-----------------|-----------------------|
|-----------------|-----------------|-----------------------|
|-----------------|-----------------|-----------------------|
|-0----3b3.5-(3)--|-0----5b5.5-(5)--|-0----3b3.5-(3)--0--3--|


3/4 5/4
Q. E +Q Q E E Q Q Q
|-------------------|---------------------------|
|-------------------|---------------------------|
|-------------------|---------------------------|
|-------------------|---------------------------|
|-------------------|---------------------------|
|-/10----3b3.5-(3)--|-0----0-3b3.5--0--10b10.5--|


3/4 5/4
Q E E +Q Q E E +Q Q E E +Q Q Q
|-----------------|-----------------|-----------------------|
|-----------------|-----------------|-----------------------|
|-----------------|-----------------|-----------------------|
|-----------------|-----------------|-----------------------|
|-----------------|-----------------|-----------------------|
|-0----3b3.5-(3)--|-0----5b5.5-(5)--|-0----3b3.5-(3)--0--3--|


3/4 5/4
Q. E +Q Q E E Q Q Q
|-------------------|---------------------------|
|-------------------|---------------------------|
|-------------------|---------------------------|
|-------------------|---------------------------|
|-------------------|---------------------------|
|-/10----3b3.5-(3)--|-0----0-3b3.5--0--10b10.5--|


3/4 5/4
Q E E +Q Q E E +Q Q E E +Q Q Q
|-----------------|-----------------|-----------------------|
|-----------------|-----------------|-----------------------|
|-----------------|-----------------|-----------------------|
|-----------------|-----------------|-----------------------|
|-----------------|-----------------|-----------------------|
|-0----3b3.5-(3)--|-0----5b5.5-(5)--|-0----3b3.5-(3)--0--3--|


3/4 5/4
Q. E +Q Q E E Q Q Q
|-------------------|---------------------------|
|-------------------|---------------------------|
|-------------------|---------------------------|
|-------------------|---------------------------|
|-------------------|---------------------------|
|-/10----3b3.5-(3)--|-0----0-3b3.5--0--10b10.5--|


3/4 5/4
Q E E +Q Q E E +Q Q E E +Q Q Q
|-----------------|-----------------|-----------------------|
|-----------------|-----------------|-----------------------|
|-----------------|-----------------|-----------------------|
|-----------------|-----------------|-----------------------|
|-----------------|-----------------|-----------------------|
|-0----3b3.5-(3)--|-0----5b5.5-(5)--|-0----3b3.5-(3)--0--3--|


3/4 5/4
Q. E +Q Q E E Q Q Q
|-------------------|---------------------------|
|-------------------|---------------------------|
|-------------------|---------------------------|
|-------------------|---------------------------|
|-------------------|---------------------------|
|-/10----3b3.5-(3)--|-0----0-3b3.5--0--10b10.5--|


3/4
Q E E +Q Q E E +Q
|-----------------|-----------------|
|-----------------|-----------------|
|-----------------|-----------------|
|-----------------|-----------------|
|-----------------|-----------------|
|-0----3b3.5-(3)--|-0----5b5.5-(5)--|


5/4 3/4
Q E E +Q Q Q Q. E +Q
|-----------------------|--------------------|
|-----------------------|--------------------|
|-----------------------|--------------------|
|-----------------------|--------------------|
|-----------------------|--------------------|
|-0----3b3.5-(3)--0--3--|-/10----3b3.5-(3)---|


5/4 3/4
Q E E Q Q Q Q E E +Q
|---------------------------|-----------------|
|---------------------------|-----------------|
|---------------------------|-----------------|
|---------------------------|-----------------|
|---------------------------|-----------------|
|-0----0-3b3.5--0--10b10.5--|-0----3b3.5-(3)--|


5/4 3/4
Q E E +Q Q E E +Q Q Q Q. E +Q
|-----------------|-----------------------|-------------------|
|-----------------|-----------------------|-------------------|
|-----------------|-----------------------|-------------------|
|-----------------|-----------------------|-------------------|
|-----------------|-----------------------|-------------------|
|-0----5b5.5-(5)--|-0----3b3.5-(3)--0--3--|-/10----3b3.5-(3)--|


Freely
5/4 4/4
Gtr I
W E E Q Q Q H +Q Q W
|------------|---------------|---------------------------|--------------*|
|------------|---------------|---------------------------|--------------*|
|------------|---------------|---------------------------|--------------*|
|------------|---------------|---------------------------|--------------*|
|------------|---------------|---------------------------|--------------*|
|------------|-3-0-3--12S=7s=|=10b10.5========(10)r\-----|--------------*|
|
| Gtr II
| ~~~~~~~~~~~~~~~~~~~~~~
| W W Q H. +H. Q
|------------|---------------|---------------------------|--------------*|
|------------|---------------|---------------------------|--------------*|
|------------|---------------|-----------16--------------|-(16)---------*|
|------------|---------------|---------------------------|--------------*|
|------------|---------------|---------------------------|--------------*|
|------------|---------------|---------------------------|--------------*|
|
| Gtr III
| ~~~~~~~~~~~~~~~~~~~~~~
| W W Q H. +H. Q
|------------|---------------|---------------------------|--------------*|
|------------|---------------|---------------------------|--------------*|
|------------|---------------|-----------14--------------|-(14)---------*|
|------------|---------------|---------------------------|--------------*|
|------------|---------------|---------------------------|--------------*|
|------------|---------------|---------------------------|--------------*|


Duration Legend
---------------
W - whole; H - half; Q - quarter; E - 8th; S - 16th; T - 32nd; X - 64th; a - acciaccatura
+ - note tied to previous; . - note dotted; .. - note double dotted
Uncapitalized letters represent notes that are staccato (1/2 duration)
Irregular groupings are notated above the duration line
Duration letters will always appear directly above the note/fret number it represents the
duration for. Duration letters with no fret number below them represent rests. Multi-
bar rests are notated in the form Wxn, where n is the number of bars to rest for. Low
melody durations appear below the staff

Tablature Legend
----------------
h - hammer-on
p - pull-off
b - bend
pb - pre-bend
r - bend release (if no number after the r, then release immediately)
/\ - slide into or out of (from/to "nowhere")
s - legato slide
S - shift slide
- natural harmonic
[n] - artificial harmonic
n(n) - tapped harmonic
~ - vibrato
tr - trill
T - tap
TP - trem. picking
PM - palm muting
\n/ - tremolo bar dip; n = amount to dip
\n - tremolo bar down
n/ - tremolo bar up
/n\ - tremolo bar inverted dip
= - hold bend; also acts as connecting device for hammers/pulls
<> - volume swell (louder/softer)
x - on rhythm slash represents muted slash
o - on rhythm slash represents single note slash
Song info
Rusty Cage
Soundgarden
2001
  • Rock
  • Alternative Rock
  • Grunge
Alternative tracks
Similar songs
Handsome And Gretel - Babes in Toyland
The End Has No End - The Strokes
Lucky - Radiohead
End - The Cure
Bedshaped - Keane

Hi! Hope you enjoy backing track experience.
If you want to help us in the development of the project, feel free to donate!