The Only - Static-X
00:00 / 00:00
Tabs and lyrics
Tunning: Standard (E A D G B e)
song:the only
artist: static-x
album: Shadow Zone
tuning: EADGBE
tabbed by: Kornfreakonaleash
x= mute h=hammer z=harmonic

Chorus

E--------------------------------------------------------------------
B--------------------------------------------------------------------
G-5-5-5--55-5-5-5--8-8-8--88-8-8-8-----------------------------------
D-5-5-5--55-5-5-5--8-8-8--88-8-8-8-----------------------------------
A-3-3-3--33-3-3-3--6-6-6--66-6-6-6--6-6-6--66-6-6-6--8-8-8--88-8-8---
E-3-3-3--33-3-3-3--6-6-6--66-6-6-6--4-4-4--44-4-4-4--6-6-6--66-6-6-7-

E--------------------------------------------------------------------
B--------------------------------------------------------------------
G--------------------------------------------------------------------
D-5-5-5--55-5-5-5--8-8-8--88-8-8-8-------------------6-6-6--66-6-8-8-
A-3-3-3--33-3-3-3--6-6-6--66-6-6-6--6-6-6--66-6-6-6--4-4-4--44-4-6-6-
E-3-3-3--33-3-3-3--6-6-6--66-6-6-6--4-4-4--44-4-4-4------------------

Verse

E-8--10--11--10---
B---8---8---8---8-
G----------------- Repeat 3 more times
D-----------------
A-----------------
E-----------------

After that, you do the chorus again and then the Bridge:

E---------------------------------------------------------------------
B---------------------------------------------------------------------
G-5----8-7-3----8-7----------------------------12-12-12-12-12-12-12-12
D-x----x-x-x----x-x-6-5-6-8-10----8-10-8-10-12--x--x--x--x--x--x--x--x
A-3----6-5-1----6-5-x-x-x-x--x----x--x-x--x--x-10-10-10-10-10-10-10-10
E-------------------4-3-4-6--8----6--8-6--8-10------------------------

E---------------------------------------------------------
B---------------------------------------------------------
G-10-10-10-10-10-10-10-10-8-8-8-8-8-8-8-8-5-5-5-5-8-8-8-8-
D--x--x--x--x--x--x--x--x-x-x-x-x-x-x-x-x-x-x-x-x-x-x-x-x-
A--8--8--8--8--8--8--8--8-6-6-6-6-6-6-6-6-3-3-3-3-6-6-6-6-
E---------------------------------------------------------

E----------------------------------
B----------------------------------
G---------------------------------- Repeat a couple of times
D-8h7-7--8h7-7----8h7-7--8h7-7--8z-
A-6h5-5--6h5-5----6h5-5--6h5-5-----
E----------------------------------


This was a hard song to tab, so please cut me some slack
if there are any mistakes. if you have anything to say about this tab,
email me at: rmash4719@hotmail.com
Tunning: Standard (E A D G B e)
-------------------------------------------------------------------------------
Static-X - The Only
-------------------------------------------------------------------------------
Tabbed by:ME
Email:not gonna tell ya

Tuning:tuning is drop d and a whole step down a.k.a. drop c tuning
im not saying that this tab is correct but if its wrong, its only because i
didnt tab right cause i have played this song soooooo much(oh ya, this is my first tab!!)
just listen to the song to see how many times to play what cause this song is not hard at all.

intro/chrous guitar 1 this part played by both guitars until...
|-------------------------------|
|-------------------------------|
|---------------3------5------6-|
|-0------3------3------5------6-|
|-0------3------1------3------4-|
|-0------3----------------------|

this!) intro/chours guitar 2(you can figure out the rythm)
|---------------------------|
|---------------------------|
|-14------12------10------8-|
|--*-------*------*-------*-|
|-12------10------8-------6-|
|---------------------------|

Verse guitar 2
|-10------12------13-----|
|-----10------10------10-|
|------------------------|
|------------------------|
|------------------------|
|------------------------|

Solo guitar one (i know, i watched the video!!)
|-----------------------------------------------------------------------
|-----------------------------------------------------------------------
|-7------10-9-----5------10-9------3--2--3--5--7----5--7--9----7--9--10-
|-*------*--*-----*------*--*------*--*--*--*--*----*--*--*----*--*--*--
|-5------8--7-----3------8--7------1--0--1--3--5----3--5--7----5--7--8--
|-----------------------------------------------------------------------

then play the intro/chours part guitar 2 again then...

...bridge
|---------------------------------------|
|---------------------------------------|
|---------------------------------------|
|-3p2--2--3p2--2-----3p2--2--3p2--2-----|
|-3p2--2--3p2--2-----3p2--2--3p2--2-----|
|-3p2--2--3p2--2-----3p2--2--3p2--2--3*-|
Tunning: Standard (E A D G B e)
hey everyone this is bryan....this is a really cool song from the new
album "Shadow Zone" i heard this song before it came out on the radio
from someone but anyway here is the tab....

it is in drop C

Intro

1st guitar 2 times
--------------
--------------
--------3--5--
--0--3--3--5--
--0--3--1--3-4
--0--3--------

2nd guitar
--------------- \
--------------- \
--------3------ \ play only the first time
--0--3--3--1--- /
--0--3--1--1--- /
--0--3-----1--- /

--------------------------------
--------------------------------
--14--14--14--14--14--14--14--14
---x---x---x---x---x---x---x---x
--12--12--12--12--12--12--12--12
--------------------------------

--------------------------------
--------------------------------
--12--12--12--12--12--12--12--12
---x---x---x---x---x---x---x---x
--10--10--10--10--10--10--10--10
--------------------------------

--------------------------------
--------------------------------
--10--10--10--10--10--10--10--10
---x---x---x---x---x---x---x---x
---8---8---8---8---8---8---8---8

----------------------------
----------------------------
--8--8--8--8--10--10--10--10
--x--x--x--x---x---x---x---x
--6--6--6--6---8---8---8---8
----------------------------

Verse 1 just guitar 2 repeat until the course starts

--10-10--------11-11---------12-12--------11-11
--------10-10---------10-10---------10-10------
-----------------------------------------------
-----------------------------------------------
-----------------------------------------------
-----------------------------------------------

Course

1st guitar 2 times
--------------
--------------
--------3--5--
--0--3--3--5--
--0--3--1--3-4
--0--3--------

2nd guitar
--------------- \
--------------- \
--------3------ \ play only the first time
--0--3--3--1--- /
--0--3--1--1--- /
--0--3-----1--- /

--------------------------------
--------------------------------
--14--14--14--14--14--14--14--14
---x---x---x---x---x---x---x---x
--12--12--12--12--12--12--12--12
--------------------------------

--------------------------------
--------------------------------
--12--12--12--12--12--12--12--12
---x---x---x---x---x---x---x---x
--10--10--10--10--10--10--10--10
--------------------------------

--------------------------------
--------------------------------
--10--10--10--10--10--10--10--10
---x---x---x---x---x---x---x---x
---8---8---8---8---8---8---8---8

----------------------------
----------------------------
--8--8--8--8--10--10--10--10
--x--x--x--x---x---x---x---x
--6--6--6--6---8---8---8---8
----------------------------


Verse 2 just guitar 2 repeat until the course starts

--10-10--------11-11---------12-12--------11-11
--------10-10---------10-10---------10-10------
-----------------------------------------------
-----------------------------------------------
-----------------------------------------------
-----------------------------------------------

Course

1st guitar 2 times
--------------
--------------
--------3--5--
--0--3--3--5--
--0--3--1--3-4
--0--3--------

2nd guitar
--------------- \
--------------- \
--------3------ \ play only the first time
--0--3--3--1--- /
--0--3--1--1--- /
--0--3-----1--- /

--------------------------------
--------------------------------
--14--14--14--14--14--14--14--14
---x---x---x---x---x---x---x---x
--12--12--12--12--12--12--12--12
--------------------------------

--------------------------------
--------------------------------
--12--12--12--12--12--12--12--12
---x---x---x---x---x---x---x---x
--10--10--10--10--10--10--10--10
--------------------------------

--------------------------------
--------------------------------
--10--10--10--10--10--10--10--10
---x---x---x---x---x---x---x---x
---8---8---8---8---8---8---8---8

----------------------------
----------------------------
--8--8--8--8--10--10--10--10
--x--x--x--x---x---x---x---x
--6--6--6--6---8---8---8---8
----------------------------

Bridge
1st guitar plays this
---------------------------------
---------------------------------
--------3--5----------3--5-------
--0--3--3--5----0--3--3--5-------
--0--3--1--3-4--0--3--1--3-4-----
--0--3----------0--3-------------

2nd guitar plays this

-----------------------
-----------------------
--7--10--9--5--10--9--3
--x---x--x--x---x--x--x
--5---8--7--3---8--7--1
-----------------------

------------------
------------------
--3--5--7--5--7--9
--x--x--x--x--x--x
--1--3--5--3--5--7
------------------

--------------------------------
--------------------------------
--14--14--14--14--14--14--14--14
---x---x---x---x---x---x---x---x
--12--12--12--12--12--12--12--12
--------------------------------

--------------------------------
--------------------------------
--12--12--12--12--12--12--12--12
---x---x---x---x---x---x---x---x
--10--10--10--10--10--10--10--10
--------------------------------

--------------------------------
--------------------------------
--10--10--10--10--10--10--10--10
---x---x---x---x---x---x---x---x
---8---8---8---8---8---8---8---8

----------------------------
----------------------------
--8--8--8--8--10--10--10--10
--x--x--x--x---x---x---x---x
--6--6--6--6---8---8---8---8
----------------------------

1st guitar only
--------------------
--------------------
--------------------
--3-2-2-2--3-2-2-2-- (2x)
--3-2-2-2--3-2-2-2--
--3-2-2-2--3-2-2-2--

--------------------
--------------------- (5x i think)
---------------------
--3-2-2-2--3-2-2-2--3
--3-2-2-2--3-2-2-2---
--3-2-2-2--3-2-2-2---


Course (now play the whole course 2 times)

1st guitar 2 times
--------------
--------------
--------3--5--
--0--3--3--5--
--0--3--1--3-4
--0--3--------

2nd guitar
--------------- \
--------------- \
--------3------ \ play only the first time
--0--3--3--1--- /
--0--3--1--1--- /
--0--3-----1--- /

--------------------------------
--------------------------------
--14--14--14--14--14--14--14--14
---x---x---x---x---x---x---x---x
--12--12--12--12--12--12--12--12
--------------------------------

--------------------------------
--------------------------------
--12--12--12--12--12--12--12--12
---x---x---x---x---x---x---x---x
--10--10--10--10--10--10--10--10
--------------------------------

--------------------------------
--------------------------------
--10--10--10--10--10--10--10--10
---x---x---x---x---x---x---x---x
---8---8---8---8---8---8---8---8

----------------------------
----------------------------
--8--8--8--8--10--10--10--10
--x--x--x--x---x---x---x---x
--6--6--6--6---8---8---8---8
----------------------------

Outro
1st guitar
------------------------
------------------------
------------------------
--0--0-0-0-0--0--0-0-0-0
--0--0-0-0-0--0--0-0-0-0
--0--0-0-0-0--0--0-0-0-0

I can't really figure out the 2nd guitar part for the ending

well thats it i hope that it was clear enough....just listen for the rythem to
the song for 1st guitar espically....if you have any questions just e~mail me at
gotafatalwound@yahoo.com or send me an im at gotafatalwound...well until the next
song i come across later dudes
Tunning: Drop C (C G C F A D)
[Intro/Chorus]
(Guitar 1)
D|-------------------------------------------------------------------------|
A|-------------------------------------------------------------------------|
F|-------3--5-----14--------12-------10--------8------10-------------------|
C|-0--3--3--5------x-(x16)---x-(x16)--x-(x16)--x-(x8)--x-(x8)--------------|
G|-0--3--1--3--4--12--------10--------8--------6-------8-------------------|
C|-0--3--------------------------------------------------------------------|

(Guitar 2)
D|-------------------------------------------------------------------------|
A|-------------------------------------------------------------------------|
F|-------------------------------------------------------------------------|
C|-0--3--8--10-----0---------3--------8--------1---------------------------|
G|-0--3--8--10-----0---------3--------8--------1---------------------------|
C|-0--3--8--10-11--0---------3--------8--------1--3------------------------|

[Verse]
(Guitar 1)
D|-10----12----13----12----------------------------------------------------|
A|----10----10----10----10--(x4)-------------------------------------------|
F|-------------------------------------------------------------------------|
C|-------------------------------------------------------------------------|
G|-------------------------------------------------------------------------|
C|-------------------------------------------------------------------------|

[Chorus]
(Guitar 1)
D|-------------------------------------------------------------------------|
A|-------------------------------------------------------------------------|
F|-------3--5-----14--------12-------10--------8------10-------------------|
C|-0--3--3--5------x-(x16)---x-(x16)--x-(x16)--x-(x8)--x-(x8)--------------|
G|-0--3--1--3--4--12--------10--------8--------6-------8-------------------|
C|-0--3--------------------------------------------------------------------|

(Guitar 2)
D|-------------------------------------------------------------------------|
A|-------------------------------------------------------------------------|
F|-------------------------------------------------------------------------|
C|-0--3--8--10-----0---------3--------8--------1---------------------------|
G|-0--3--8--10-----0---------3--------8--------1---------------------------|
C|-0--3--8--10-11--0---------3--------8--------1--3------------------------|

[Verse]
(Guitar 1)
D|-10----12----13----12----------------------------------------------------|
A|----10----10----10----10--(x4)-------------------------------------------|
F|-------------------------------------------------------------------------|
C|-------------------------------------------------------------------------|
G|-------------------------------------------------------------------------|
C|-------------------------------------------------------------------------|

[Chorus]
(Guitar 1)
D|-------------------------------------------------------------------------|
A|-------------------------------------------------------------------------|
F|-------3--5-----14--------12-------10--------8------10-------------------|
C|-0--3--3--5------x-(x16)---x-(x16)--x-(x16)--x-(x8)--x-(x8)--------------|
G|-0--3--1--3--4--12--------10--------8--------6-------8-------------------|
C|-0--3--------------------------------------------------------------------|

(Guitar 2)
D|-------------------------------------------------------------------------|
A|-------------------------------------------------------------------------|
F|-------------------------------------------------------------------------|
C|-0--3--8--10-----0---------3--------8--------1---------------------------|
G|-0--3--8--10-----0---------3--------8--------1---------------------------|
C|-0--3--8--10-11--0---------3--------8--------1--3------------------------|


[Solo]
(Guitar 1)
D|------------------------------------------------(x16)(x16)(x16)-(x8)-(x8)|
A|-------------------------------------------------------------------------|
F|-7--10-9-5--10-9----------------------------------14---12---10----8---10-|
C|-x---x-x-x---x-x-8-7-8-10-12--10-12-14--12-14-15---x----x----x----x----x-|
G|-5---8-7-3---8-7-8-7-8-10-12--10-12-14--12-14-15--12---10----8----6----8-|
C|-----------------8-7-8-10-12--10-12-14--12-14-15-------------------------|

(Guitar 2)
D|-------------------------------------------------------------------------|
A|-------------------------------------------------------------------------|
F|-------------------------------------------------------------------------|
C|-0------3-----8-----10--------0------3------1----------------------------|
G|-0------3-----8-----10--------0------3------1----------------------------|
C|-0------3-----8-----10--11----0------3------1--3-------------------------|

[Bridge]
(Guitars 1 & 2)
D|--------------|--------------------------|-------------------------------|
A|-(First Time)-|--------------------------|-(Last Time)-------------------|
F|--------------|--------------------------|-------------------------------|
C|-3-2-2--3-2-2-|-3-2-2--3-2-2-------------|---3-2-2-00--------------------|
G|-3-2-2--3-2-2-|-3-2-2--3-2-2-------(x4)--|---3-2-2-00--------------------|
C|-3-2-2--3-2-2-|-3-2-2--3-2-2--<3>--------|---3-2-2-00--------------------|
..

[Chorus] (x2)
(Guitar 1)
D|-------------------------------------------------------------------------|
A|-------------------------------------------------------------------------|
F|-------3--5-----14--------12-------10--------8------10-------------------|
C|-0--3--3--5------x-(x16)---x-(x16)--x-(x16)--x-(x8)--x-(x8)--------------|
G|-0--3--1--3--4--12--------10--------8--------6-------8-------------------|
C|-0--3--------------------------------------------------------------------|

(Guitar 2)
D|-------------------------------------------------------------------------|
A|-------------------------------------------------------------------------|
F|-------------------------------------------------------------------------|
C|-0--3--8--10-----0---------3--------8--------1---------------------------|
G|-0--3--8--10-----0---------3--------8--------1---------------------------|
C|-0--3--8--10-11--0---------3--------8--------1--3------------------------|



************************************

| x Dead note
| (First Time)
| (Last Time)
| (x
| )
| )(x
| <
| >

************************************
Tunning: Standard (E A D G B e)
gtr.1
|---------------|
|---------------|
|-------3--5----|x2
|-0--3--3--5----|
|-0--3--1--3--4-|
|-0--3----------|

gtr.2
|-------------------------------------------|
|-------------------------------------------|
|-14-------12------10-------8------10-------|
|--x-(16)---x-(16)--x-(16)--x-(x8)--x-(x8)--|
|-12-------10-------8-------6-------8-------|
|-------------------------------------------|

gtr.1
|-10-------12-------13-------12-----|
|-----10--------10-------10------10-|
|-----------------------------------|
|-----------------------------------|x4
|-----------------------------------|
|-----------------------------------|


|---------------|
|---------------|
|-------3--5----|x2
|-0--3--3--5----|
|-0--3--1--3--4-|
|-0--3----------|

gtr.2
|-------------------------------------------|
|-------------------------------------------|
|-14-------12------10-------8------10-------|
|--x-(16)---x-(16)--x-(16)--x-(x8)--x-(x8)--|
|-12-------10-------8-------6-------8-------|
|-------------------------------------------|

gtr.1
|-10-------12-------13-------12-----|
|-----10--------10-------10------10-|
|-----------------------------------|
|-----------------------------------|x4
|-----------------------------------|
|-----------------------------------|


|---------------|
|---------------|
|-------3--5----|x2
|-0--3--3--5----|
|-0--3--1--3--4-|
|-0--3----------|

gtr.2
|-------------------------------------------|
|-------------------------------------------|
|-14-------12------10-------8------10-------|
|--x-(16)---x-(16)--x-(16)--x-(x8)--x-(x8)--|
|-12-------10-------8-------6-------8-------|
|-------------------------------------------|


solo
|----------------------------------------------|
|----------------------------------------------|
|----------------------------------------------|
|--0--3-2-----3-2----------------0-----0--2-3--|
|----------3-------3--0-1-0-1-3-----3----------|
|----------------------------------------------|


|---------------|
|---------------|
|-------3--5----|
|-0--3--3--5----|
|-0--3--1--3--4-|
|-0--3----------|

|-------------------------------------------|
|-------------------------------------------|
|-14-------12------10-------8------10-------|
|--x-(16)---x-(16)--x-(16)--x-(x8)--x-(x8)--|
|-12-------10-------8-------6-------8-------|
|-------------------------------------------|

|------------------------------------------|
|------------------------------------------|
|------------------------------------------|
|------------------------------------------|
|---3/2-2--3/2-2--3/2-2--3/2-2------5b-----|
|---3/2-2--3/2-2--3/2-2--3/2-2------5b-----|

|-------------------------------|
|-------------------------------|
|-------------------------------|
|-------------------------------|x3
|--3/2--2-2---3/2--2-2----5b----|
|--3/2--2-2---3/2--2-2----5b----|

|------------|
|------------|
|------------|
|------------|
|--3/2--2----|
|--3/2--2----|

|---------------|
|---------------|
|-------3--5----|
|-0--3--3--5----|
|-0--3--1--3--4-|
|-0--3----------|


|-------------------------------------------|
|-------------------------------------------|
|-14-------12------10-------8------10-------|
|--x-(16)---x-(16)--x-(16)--x-(x8)--x-(x8)--|
|-12-------10-------8-------6-------8-------|
|-------------------------------------------|

|-----------------------|
|-----------------------|
|-----------------------|
|-----------------------|
|--0---0-0----0---0-0---|
|--0---0-0----0---0-0---|


iight dis is a complete song
Song info
The Only
Static-X
2001
  • Electronic
  • Rock
  • Heavy Metal
  • Industrial
Similar songs
Sad But True - Metallica
Go Off - Cacophony
Enter Sandman - Metallica
The Green Manalishi - Judas Priest
sic - Slipknot

Hi! Hope you enjoy backing track experience.
If you want to help us in the development of the project, feel free to donate!