Dakota - Stereophonics
00:00 / 00:00
Tabs and lyrics
Tunning: Standard (E A D G B e)
This is the amazing new song by Stereophonics on their amazing new album(it rocks!!)...EnJoy!;)
any probs or questions you know where to e-mail me!
----------------------------------------------------------------------------
STEREOPHONICS-Dakota
ALBUM:Language.Sex.Violence.Other
Tabbed by Tom Woo(strato32) Help from:Dewi Roberts

Standard Tuning


[Intro]

(Just plays one note.The effect used plays another 15 notes.)
e|-----------------------------------------------------------------|
B|-----------------------------------------------------------------|
G|-----------------------------------------------------------------|
D|-9---------------6---------------2---------------9---------------|
A|-----------------------------------------------------------------|
E|-----------------------------------------------------------------|


[This is then played at]

(0:12)
e|----12--------11-------7---------7---------7------------------|
B|-12----12--12------5--------5---------5-----------------------|
G|--------------------------------------------------------------|
D|--------------------------------------------------------------|
A|--------------------------------------------------------------|
E|--------------------------------------------------------------|
(Th first part of verse 1 is also played behind this)


[Verse 1]

e|-7-4-7-4-7-4-7-4-7-4-7-4-7-4-7-4-9--9--9--9--9--9--9--9--9-----------------7-4-7-4-7-4-7-4-7-4-7-4-7-4-7-4-|
B|-----------------------------------------------------------------------------------------------------------|
G|-----------------------------------------------------------------------------------------------------------|
D|-----------------------------------------------------------------------------------------------------------|
A|-----------------------------------------------------------------------------------------------------------|
E|-----------------------------------------------------------------------------------------------------------|

e|-7-4-7-4-7-4-7-4-7-4-7-4-7-4-7-4-9--9--9--9--9--9--9--9--9-0-0-0-0-0-0-0-0-0-0-0-0-0-0-0-0-0-0-0-0-0-0-0-0-|
B|----------------------------------------------------------------------------------------------------------x|
G|----------------------------------------------------------------------------------------------------------x|
D|----------------------------------------------------------------------------------------------------------x|
A|----------------------------------------------------------------------------------------------------------x|
E|-----------------------------------------------------------------------------------------------------------|


[Chorus]

e|-----------------------------------------------------------------|
B|-----------------------------------------------------------------|
G|--6-6-6-6-6-6-6-6--------1-1-1-1-1-1-1-1-------------------------|
D|--7-7-7-7-7-7-7-7--------2-2-2-2-2-2-2-2-------------------------|
A|--7-7-7-7-7-7-7-7--------2-2-2-2-2-2-2-2-------------------------|
E|--5-5-5-5-5-5-5-5--------0-0-0-0-0-0-0-0-------------------------|
(x4) (x4)


This is played over the chords

e|-12-11------12-11-----4-(5)-(4)-(5)-(4)-(5)-(4)-(5)-(4)-|
B|-------12-9-------12-9----------------------------------|
G|--------------------------------------------------------|
D|--------------------------------------------------------|
A|--------------------------------------------------------|
E|--------------------------------------------------------|

e|-(5)-(4)-5-4-(5)-(4)-(5)-(4)-(5)-(4)-(5)-(4)-(5)-(4)-(5)|
B|--------------------------------------------------------|
G|--------------------------------------------------------|
D|--------------------------------------------------------|
A|--------------------------------------------------------|
E|--------------------------------------------------------|


(Bend the 4\'s to sound as 5\'s and then bend back to sound 4).Play the chorus 2 times.
The second time, play this;
e|-----------------------------------------------------------------|
B|-----------------------------------------------------------------|
G|--6-6-6-6-6-6-6-6--------1-1-1-1-1-1-1-1-------------------------|
D|--7-7-7-7-7-7-7-7--------2-2-2-2-2-2-2-2-------------------------|
A|--7-7-7-7-7-7-7-7--------2-2-2-2-2-2-2-2-------------------------|
E|--5-5-5-5-5-5-5-5--------0-0-0-0-0-0-0-0-------------------------|
(x4) (x4)


This is played over the chords
e|-12-11------12-11-----4-(5)-(4)-(5)-(4)-(5)-(4)-(5)|
B|-------12-9-------12-9-----------------------------|
G|---------------------------------------------------|
D|---------------------------------------------------|
A|---------------------------------------------------|
E|---------------------------------------------------|

e|-(4)-(5)-(4)-5-4-(5)-(4)-(5)-(4)-(5)-(4)-(5)-(4)-------------|
B|-------------------------------------------------------------|
G|----------------------------------------------------slide----|
D|----------------------------------------------------plec up--|
A|-------------------------------------------------------------|
E|-------------------------------------------------------------|


[Verse 2]

e|-7-4-7-4-7-4-7-4-7-4-7-4-7-4-7-4-9--9--9--9--9--9--9--9--9-----------------7-4-7-4-7-4-7-4-7-4-7-4-7-4-7-4-|
B|-----------------------------------------------------------------------------------------------------------|
G|-----------------------------------------------------------------------------------------------------------|
D|-----------------------------------------------------------------------------------------------------------|
A|-----------------------------------------------------------------------------------------------------------|
E|-----------------------------------------------------------------------------------------------------------|

e|-7-4-7-4-7-4-7-4-7-4-7-4-7-4-7-4-9--9--9--9--9--9--9--9--9-0-0-0-0-0-0-0-0-0-0-0-0-0-0-0-0-0-0-0-0-0-0-0-0-|
B|----------------------------------------------------------------------------------------------------------x|
G|----------------------------------------------------------------------------------------------------------x|
D|----------------------------------------------------------------------------------------------------------x|
A|----------------------------------------------------------------------------------------------------------x|
E|-----------------------------------------------------------------------------------------------------------|


Over this repeat this section two times:
e|----12--------11-------7---------7---------7------------------|
B|-12------12----------5--------5---------5---------------------|
G|--------------------------------------------------------------|
D|--------------------------------------------------------------|
A|--------------------------------------------------------------|
E|--------------------------------------------------------------|


[Chorus 2]

e|-----------------------------------------------------------------|
B|-----------------------------------------------------------------|
G|--6-6-6-6-6-6-6-6--------1-1-1-1-1-1-1-1-------------------------|
D|--7-7-7-7-7-7-7-7--------2-2-2-2-2-2-2-2-------------------------|
A|--7-7-7-7-7-7-7-7--------2-2-2-2-2-2-2-2-------------------------|
E|--5-5-5-5-5-5-5-5--------0-0-0-0-0-0-0-0-------------------------|
(x4) (x4)


This is played over the chords

e|-12-11------12-11-----4-(5)-(4)-(5)-(4)-(5)-(4)-(5)|
B|-------12-9-------12-9-----------------------------|
G|---------------------------------------------------|
D|---------------------------------------------------|
A|---------------------------------------------------|
E|---------------------------------------------------|

e|-(4)-(5)-(4)-5-4-(5)-(4)-(5)-(4)-(5)-(4)-(5)-(4)-(5)-(4)-(5)-|
B|-------------------------------------------------------------|
G|-------------------------------------------------------------|
D|-------------------------------------------------------------|
A|-------------------------------------------------------------|
E|-------------------------------------------------------------|

e|-----------------------------------------------------------------|
B|-----------------------------------------------------------------|
G|--6-6-6-6-6-6-6-6--------1-1-1-1-1-1-1-1-------------------------|
D|--7-7-7-7-7-7-7-7--------2-2-2-2-2-2-2-2-------------------------|
A|--7-7-7-7-7-7-7-7--------2-2-2-2-2-2-2-2-------------------------|
E|--5-5-5-5-5-5-5-5--------0-0-0-0-0-0-0-0-------------------------|
(x4) (x4)


This is played over the chords

e|-12-11------12-11-----4-(5)-(4)-(5)-(4)-(5)-(4)-(5)|
B|-------12-9-------12-9-----------------------------|
G|---------------------------------------------------|
D|---------------------------------------------------|
A|---------------------------------------------------|
E|---------------------------------------------------|

e|-(4)-(5)-(4)-5-4-(5)-(4)-(5)-(4)-(5)-(4)-(5)-(4)-------------|
B|-------------------------------------------------------------|
G|----------------------------------------------------slide----|
D|----------------------------------------------------plec up--|
A|-------------------------------------------------------------|
E|-------------------------------------------------------------|


[Bridge]

e|-------------------------------------------------------------------------------------------------|
B|-------------------------------------------------------------------------------------------------|
G|-1-1-1-1-1-1-1-1-1-1-1-1-------------------------------------------------------------------------|
D|-2-2-2-2-2-2-2-2-2-2-2-2-6-6-6-6-6-6-6-6-6-6-6-6-7-7-7-7-7-7-7-7-7-7-7-7-7-7-7-7-7-7-7-7-7-7-7-7-|
A|-2-2-2-2-2-2-2-2-2-2-2-2-6-6-6-6-6-6-6-6-6-6-6-6-7-7-7-7-7-7-7-7-7-7-7-7-7-7-7-7-7-7-7-7-7-7-7-7-|
E|-0-0-0-0-0-0-0-0-0-0-0-0-4-4-4-4-4-4-4-4-4-4-4-4-5-5-5-5-5-5-5-5-5-5-5-5-5-5-5-5-5-5-5-5-5-5-5-5-|

Also this is played over the A chord 4 times.

e|----------------------|
B|------------5----7----|
G|--4----6--------------|
D|----------------------|
A|----------------------|
E|----------------------|
This whole Bridge is played 2 times.


[Verse 3]

e|-7-4-7-4-7-4-7-4-7-4-7-4-7-4-7-4-9--9--9--9--9--9--9--9--9-----------------7-4-7-4-7-4-7-4-7-4-7-4-7-4-7-4-|
B|-----------------------------------------------------------------------------------------------------------|
G|-----------------------------------------------------------------------------------------------------------|
D|-----------------------------------------------------------------------------------------------------------|
A|-----------------------------------------------------------------------------------------------------------|
E|-----------------------------------------------------------------------------------------------------------|

e|-7-4-7-4-7-4-7-4-7-4-7-4-7-4-7-4-9--9--9--9--9--9--9--9--9-0-0-0-0-0-0-0-0-0-0-0-0-0-0-0-0-0-0-0-0-0-0-0-0-|
B|----------------------------------------------------------------------------------------------------------x|
G|----------------------------------------------------------------------------------------------------------x|
D|----------------------------------------------------------------------------------------------------------x|
A|-----------------------------------------------------------------------------------------------------------|
E|-----------------------------------------------------------------------------------------------------------|

Over the second time this is played again;

e|----12--------11-------7---------7---------7------------------|
B|-12----12--12----12--5--------5---------5---------------------|
G|--------------------------------------------------------------|
D|--------------------------------------------------------------|
A|--------------------------------------------------------------|
E|--------------------------------------------------------------|

Then there is another Chorus.


[Chorus 3]

e|-----------------------------------------------------------------|
B|-----------------------------------------------------------------|
G|--6-6-6-6-6-6-6-6--------1-1-1-1-1-1-1-1-------------------------|
D|--7-7-7-7-7-7-7-7--------2-2-2-2-2-2-2-2-------------------------|
A|--7-7-7-7-7-7-7-7--------2-2-2-2-2-2-2-2-------------------------|
E|--5-5-5-5-5-5-5-5--------0-0-0-0-0-0-0-0-------------------------|
(x4) (x4)


This is played over the chords

e|-12-11------12-11-----4-(5)-(4)-(5)-(4)-(5)-(4)-(5)-(4)|
B|-------12-9-------12-9---------------------------------|
G|-------------------------------------------------------|
D|-------------------------------------------------------|
A|-------------------------------------------------------|
E|-------------------------------------------------------|

e|-(5)-(4)-5-4-(5)-(4)-(5)-(4)-(5)-(4)-(5)-(4)-(5)-(4)-(5)-|
B|---------------------------------------------------------|
G|---------------------------------------------------------|
D|---------------------------------------------------------|
A|---------------------------------------------------------|
E|---------------------------------------------------------|

e|-----------------------------------------------------------------|
B|-----------------------------------------------------------------|
G|--6-6-6-6-6-6-6-6--------1-1-1-1-1-1-1-1-------------------------|
D|--7-7-7-7-7-7-7-7--------2-2-2-2-2-2-2-2-------------------------|
A|--7-7-7-7-7-7-7-7--------2-2-2-2-2-2-2-2-------------------------|
E|--5-5-5-5-5-5-5-5--------0-0-0-0-0-0-0-0-------------------------|
(x4) (x4)


This is played over the chords
e|-12-11------12-11-----4-(5)-(4)-(5)-(4)-(5)-(4)-(5)|
B|-------12-9-------12-9-----------------------------|
G|---------------------------------------------------|
D|---------------------------------------------------|
A|---------------------------------------------------|
E|---------------------------------------------------|

e|-(4)-(5)-(4)-5-4-(5)-(4)-(5)-(4)-(5)-(4)-(5)-(4)-------------|
B|-------------------------------------------------------------|
G|----------------------------------------------------slide----|
D|----------------------------------------------------plec up--|
A|-------------------------------------------------------------|
E|-------------------------------------------------------------|


[Bridge 2]

e|-------------------------------------------------------------------------------------------------|
B|-------------------------------------------------------------------------------------------------|
G|-1-1-1-1-1-1-1-1-1-1-1-1-------------------------------------------------------------------------|
D|-2-2-2-2-2-2-2-2-2-2-2-2-6-6-6-6-6-6-6-6-6-6-6-6-7-7-7-7-7-7-7-7-7-7-7-7-7-7-7-7-7-7-7-7-7-7-7-7-|
A|-2-2-2-2-2-2-2-2-2-2-2-2-6-6-6-6-6-6-6-6-6-6-6-6-7-7-7-7-7-7-7-7-7-7-7-7-7-7-7-7-7-7-7-7-7-7-7-7-|
E|-0-0-0-0-0-0-0-0-0-0-0-0-4-4-4-4-4-4-4-4-4-4-4-4-5-5-5-5-5-5-5-5-5-5-5-5-5-5-5-5-5-5-5-5-5-5-5-5-|

Also this is played over the A chord 4 times.

e|----------------------|
B|------------5----7----|
G|--4----6--------------|
D|----------------------|
A|----------------------|
E|----------------------|
This whole Bridge is played 4 times.


[Outro]
(Effect used at beginning)
e|----------------------------------------------------|
B|----------------------------------------------------|
G|----------------------------------------------------|
D|----------------------------------------------------|
A|--9---------------13-----------14-------------------|
E|----------------------------------------------------|

Play this two times then end on

e|--------------------|
B|--------------------|
G|--------------------|
D|----9---------------|
A|--------------------|
E|--------------------|

LYRICS (Order)


[Intro]

[Verse 1]

Thinking back, thinking of you,
Summer time think it was June,
Yeah I think it was June.
Laying back head on the grass,
Chewing gum, having some laughs,
Yeah having some laughs


[Chorus]

You made me feel like the one,
You made me feel like the one,
The one
X2


[Verse 2]

Drinking back drinking for two,
Drinking with you,
When drinking was new.
Sleeping in the back of my car,
We never went far,
We wouldn\'t need to go far


[Chorus 2]

You made me feel like the one,
You made me feel like the one,
The one

You made me feel like the one,
You made me feel like the one,
The one


[Bridge 1]

I don\'t know where we are going now,
I don\'t know where we are going now


[Verse 3]

Wake up, cold coffee and juice,
Remembering you, what happened to you.
I wonder if we\'ll meet again,
And talk about life since then,
And talk about why did it end


[Chorus 3]

You made me feel like the one,
You made me feel like the one,
The one

You made me feel like the one,
You made me feel like the one,
The one


[Bridge 2]

I don\'t know where we are going now,
I don\'t know where we are going now

So take a look at me now,
So take a look at me now,
So take a look at me now,
So take a look at me now,
So take a look at me now,
So take a look at me now,
So take a look at me now,
So take a look at me now,
So take a look at me now,


[Outro]

So take a look at me now,
So take a look at me now,
So take a look at me now,
So take a look at me now,
So take a look at me now,
So take a look at me now,
So take a look at me now,
So take a look at me now,
So take a look at me now,



************************************

| x Dead note
| (n) Ghost note

************************************
Tunning: Standard (E A D G B e)
Stereophonics

Dakota - from Language, violence, sex, other

Tabbed by: Mark Bryce 17th April 2005

Email: Brycey81a@hotmail.com
Web: www.brycey.co.uk

Tuning: EADGBe


Guitar 1: Rhythm Guitar
Guitar 2: Lead Guitar
Guitar 3: Additional guitar parts



[Intro part 1]
Guitar 1 (w/ring modulation)

e|--------------------------------------------------------------------|
B|--------------------------------------------------------------------|
G|--------------------------------------------------------------------|
D|-9-9-9-9-9-9-9-9--6-6-6-6-6-6-6-6--2-2-2-2-2-2-2-2--9-9-9-9-9-9-9-9-|
A|--------------------------------------------------------------------|
E|--------------------------------------------------------------------|

[Intro part 2]
Guitar 1

e|--------------------------------------------------------------------|
B|----12----12----12----12----12----14----14----14----14----14----14--|
G|-13----13----13----13----13----13----13----13----13----13----13-----|
D|--------------------------------------------------------------------|
A|--------------------------------------------------------------------|
E|--------------------------------------------------------------------|

e|--------------------------------------------------------------------|
B|-------------------------------------12----12----12----12----12-----|
G|----13----13----13----13----13----13----13----13----13----13----13--|
D|-14----14----14----14----14----14-----------------------------------|
A|--------------------------------------------------------------------|
E|--------------------------------------------------------------------|

Guitar 2 (w/delay)

e|-----12--11------------------------------------|
B|-----------------12---------12--------12-------|
G|--9-----------9----------9---------9-----------|
D|-----------------------------------------------|
A|-----------------------------------------------|
E|-----------------------------------------------|

[Verse 1]
Thinking back, thinking of you
Summer time think it was June
Yeah I think it was June


Guitar 1

e|--------------------------------------------------------------------|
B|----12----12----12----12----12----14----14----14----14----14----14--|
G|-13----13----13----13----13----13----13----13----13----13----13-----|
D|--------------------------------------------------------------------|
A|--------------------------------------------------------------------|
E|--------------------------------------------------------------------|

e|--------------------------------------------------------------------|
B|----------------------------------12----12----12----12----12----12--|
G|-13----13----13----13----13----13----13----13----13----13----13-----|
D|----14----14----14----14----14--------------------------------------|
A|--------------------------------------------------------------------|
E|--------------------------------------------------------------------|

Laying back head on the grass
Chewing gum, having some laughs
Yeah having some laughs


Guitar 1

e|--------------------------------------------------------------------|
B|----12----12----12----12----12----14----14----14----14----14----14--|
G|-13----13----13----13----13----13----13----13----13----13----13-----|
D|--------------------------------------------------------------------|
A|--------------------------------------------------------------------|
E|--------------------------------------------------------------------|

e|--------------------------------------------------------------------|
B|----------------------------------12----12----12----12----12----12--|
G|-13----13----13----13----13----13----13----13----13----13----13-----|
D|----14----14----14----14----14--------------------------------------|
A|--------------------------------------------------------------------|
E|--------------------------------------------------------------------|

[Finish with]
Guitar 2

e|-0-0-0-0-0-0-0-0-0-0-0-0--0-0---|
B|--------------------------0-0---|
G|--------------------------0-0---|
D|--------------------------0-0---|
A|--------------------------------|
E|--------------------------------|

[Chorus 1]

You made me feel like the one,
You made me feel like the one,
The one

Guitar 1
A E

e|--5-5-5-5-5-5-5-5-5-5-5-5-5-5-5-5---0-0-0-0-0-0-0-0-0-0-0-0-0---|
B|--5-5-5-5-5-5-5-5-5-5-5-5-5-5-5-5---0-0-0-0-0-0-0-0-0-0-0-0-0---|
G|--6-6-6-6-6-6-6-6-6-6-6-6-6-6-6-6---1-1-1-1-1-1-1-1-1-1-1-1-1---|
D|--7-7-7-7-7-7-7-7-7-7-7-7-7-7-7-7---2-2-2-2-2-2-2-2-2-2-2-2-2---|
A|--7-7-7-7-7-7-7-7-7-7-7-7-7-7-7-7---2-2-2-2-2-2-2-2-2-2-2-2-2---|
E|--5-5-5-5-5-5-5-5-5-5-5-5-5-5-5-5---0-0-0-0-0-0-0-0-0-0-0-0-0---|

Guitar 2 (w/delay)


e|--12--11-----------12--11---------------------------------------|
B|----------12--9------------12--9----9b10r9b10r9b10r9b10r9b10r9--|
G|----------------------------------------------------------------|
D|----------------------------------------------------------------|
A|----------------------------------------------------------------|
E|----------------------------------------------------------------|

(Repeat twice)

[Verse 2]

Drinking back drinking for two
Drinking with you
When drinking was new

Guitar 1

e|--------------------------------------------------------------------|
B|----12----12----12----12----12----14----14----14----14----14----14--|
G|-13----13----13----13----13----13----13----13----13----13----13-----|
D|--------------------------------------------------------------------|
A|--------------------------------------------------------------------|
E|--------------------------------------------------------------------|

e|--------------------------------------------------------------------|
B|----------------------------------12----12----12----12----12----12--|
G|-13----13----13----13----13----13----13----13----13----13----13-----|
D|----14----14----14----14----14--------------------------------------|
A|--------------------------------------------------------------------|
E|--------------------------------------------------------------------|

Guitar 2 (w/delay)


e|-----12--11------------------------------------|
B|-----------------12---------12--------12-------|
G|--9-----------9----------9---------9-----------|
D|-----------------------------------------------|
A|-----------------------------------------------|
E|-----------------------------------------------|

Sleeping in the back of my car
We never went far
We wouldn't need to go far

Guitar 1

e|--------------------------------------------------------------------|
B|----12----12----12----12----12----14----14----14----14----14----14--|
G|-13----13----13----13----13----13----13----13----13----13----13-----|
D|--------------------------------------------------------------------|
A|--------------------------------------------------------------------|
E|--------------------------------------------------------------------|

e|--------------------------------------------------------------------|
B|----------------------------------12----12----12----12----12----12--|
G|-13----13----13----13----13----13----13----13----13----13----13-----|
D|----14----14----14----14----14--------------------------------------|
A|--------------------------------------------------------------------|
E|--------------------------------------------------------------------|

Guitar 2 (w/delay)

e|-----12--11------------------------------------|
B|-----------------12---------12--------12-------|
G|--9-----------9----------9---------9-----------|
D|-----------------------------------------------|
A|-----------------------------------------------|
E|-----------------------------------------------|

[Finish with]

Guitar 2

e|-0-0-0-0-0-0-0-0-0-0-0-0--0-0---|
B|--------------------------0-0---|
G|--------------------------0-0---|
D|--------------------------0-0---|
A|--------------------------------|
E|--------------------------------|

Guitar 3

e|---------------------------------------------------------------|
B|---------------------------------------------------------------|
G|--13-13b14r13---13-13b14r13--13-13b14r13--13--13/16b17r16------|
D|---------------------------------------------------------------|
A|---------------------------------------------------------------|
E|---------------------------------------------------------------|

[Chorus 2]


You made me feel like the one,
You made me feel like the one,
The one

Guitar 1

A E

e|--5-5-5-5-5-5-5-5-5-5-5-5-5-5-5-5---0-0-0-0-0-0-0-0-0-0-0-0-0---|
B|--5-5-5-5-5-5-5-5-5-5-5-5-5-5-5-5---0-0-0-0-0-0-0-0-0-0-0-0-0---|
G|--6-6-6-6-6-6-6-6-6-6-6-6-6-6-6-6---1-1-1-1-1-1-1-1-1-1-1-1-1---|
D|--7-7-7-7-7-7-7-7-7-7-7-7-7-7-7-7---2-2-2-2-2-2-2-2-2-2-2-2-2---|
A|--7-7-7-7-7-7-7-7-7-7-7-7-7-7-7-7---2-2-2-2-2-2-2-2-2-2-2-2-2---|
E|--5-5-5-5-5-5-5-5-5-5-5-5-5-5-5-5---0-0-0-0-0-0-0-0-0-0-0-0-0---|

Guitar 2 (w/delay)

e|--12--11-----------12--11---------------------------------------|
B|----------12--9------------12--9----9b10r9b10r9b10r9b10r9b10r9--|
G|----------------------------------------------------------------|
D|----------------------------------------------------------------|
A|----------------------------------------------------------------|
E|----------------------------------------------------------------|

(Repeat twice)

[Bridge 1]

I don't know where we are going now
I don't know where we are going now

Guitar 1

E B A

e|------------------------------------5-5-5-5-5-5-5-5-5-5-5-5---|
B|------------------------------------5-5-5-5-5-5-5-5-5-5-5-5---|
G|--9-9-9-9-9-9-9-9--8-8-8-8-8-8-8-8--6-6-6-6-6-6-6-6-6-6-6-6---|
D|--9-9-9-9-9-9-9-9--9-9-9-9-9-9-9-9--7-7-7-7-7-7-7-7-7-7-7-7---|
A|--7-7-7-7-7-7-7-7--9-9-9-9-9-9-9-9--7-7-7-7-7-7-7-7-7-7-7-7---|
E|-------------------7-7-7-7-7-7-7-7--5-5-5-5-5-5-5-5-5-5-5-5---|


Guitar 2

....(w/wah pedel).....
e|--------------------------------------------------------------|
B|--------------------------------------------------------------|
G|--9-9-9-9-9-9-9-9--11-11-11-11-11----------9-11---------9-11--|
D|--x-x-x-x-x-x-x-x--x--x--x--x--x------9-11---------9-11-------|
A|--7-7-7-7-7-7-7-7--9--9--9--9--9------------------------------|
E|--------------------------------------------------------------|

(Repeat twice)

[Verse 3]

Wake up, cold coffee and juice,
Remembering you, what happened to you.

Guitar 1

e|--------------------------------------------------------------------|
B|----12----12----12----12----12----14----14----14----14----14----14--|
G|-13----13----13----13----13----13----13----13----13----13----13-----|
D|--------------------------------------------------------------------|
A|--------------------------------------------------------------------|
E|--------------------------------------------------------------------|

e|--------------------------------------------------------------------|
B|----------------------------------12----12----12----12----12----12--|
G|-13----13----13----13----13----13----13----13----13----13----13-----|
D|----14----14----14----14----14--------------------------------------|
A|--------------------------------------------------------------------|
E|--------------------------------------------------------------------|

I wonder if we'll meet again,
And talk about life since then,
And talk about why did it end

Guitar 1

e|--------------------------------------------------------------------|
B|----12----12----12----12----12----14----14----14----14----14----14--|
G|-13----13----13----13----13----13----13----13----13----13----13-----|
D|--------------------------------------------------------------------|
A|--------------------------------------------------------------------|
E|--------------------------------------------------------------------|

e|--------------------------------------------------------------------|
B|----------------------------------12----12----12----12----12----12--|
G|-13----13----13----13----13----13----13----13----13----13----13-----|
D|----14----14----14----14----14--------------------------------------|
A|--------------------------------------------------------------------|
E|--------------------------------------------------------------------|

Guitar 2 (w/delay)

e|-----12--11------------------------------------|
B|-----------------12---------12--------12-------|
G|--9-----------9----------9---------9-----------|
D|-----------------------------------------------|
A|-----------------------------------------------|
E|-----------------------------------------------|

[Finish with]

Guitar 2

e|-0-0-0-0-0-0-0-0-0-0-0-0--0-0---|
B|--------------------------0-0---|
G|--------------------------0-0---|
D|--------------------------0-0---|
A|--------------------------------|
E|--------------------------------|


Guitar 3

e|---------------------------------------------------------------|
B|---------------------------------------------------------------|
G|--13-13b14r13---13-13b14r13--13-13b14r13--13--13/16b17r16------|
D|---------------------------------------------------------------|
A|---------------------------------------------------------------|
E|---------------------------------------------------------------|

[Chorus 3]
You made me feel like the one,
You made me feel like the one,
The one

Guitar 1

A E

e|--5-5-5-5-5-5-5-5-5-5-5-5-5-5-5-5---0-0-0-0-0-0-0-0-0-0-0-0-0---|
B|--5-5-5-5-5-5-5-5-5-5-5-5-5-5-5-5---0-0-0-0-0-0-0-0-0-0-0-0-0---|
G|--6-6-6-6-6-6-6-6-6-6-6-6-6-6-6-6---1-1-1-1-1-1-1-1-1-1-1-1-1---|
D|--7-7-7-7-7-7-7-7-7-7-7-7-7-7-7-7---2-2-2-2-2-2-2-2-2-2-2-2-2---|
A|--7-7-7-7-7-7-7-7-7-7-7-7-7-7-7-7---2-2-2-2-2-2-2-2-2-2-2-2-2---|
E|--5-5-5-5-5-5-5-5-5-5-5-5-5-5-5-5---0-0-0-0-0-0-0-0-0-0-0-0-0---|


Guitar 2 (w/delay)


e|--12--11-----------12--11---------------------------------------|
B|----------12--9------------12--9----9b10r9b10r9b10r9b10r9b10r9--|
G|----------------------------------------------------------------|
D|----------------------------------------------------------------|
A|----------------------------------------------------------------|
E|----------------------------------------------------------------|

(Repeat twice)

[Bridge 2]

I don't know where we are going now
I don't know where we are going now

Guitar 1

E B A

e|------------------------------------5-5-5-5-5-5-5-5-5-5-5-5---|
B|------------------------------------5-5-5-5-5-5-5-5-5-5-5-5---|
G|--9-9-9-9-9-9-9-9--8-8-8-8-8-8-8-8--6-6-6-6-6-6-6-6-6-6-6-6---|
D|--9-9-9-9-9-9-9-9--9-9-9-9-9-9-9-9--7-7-7-7-7-7-7-7-7-7-7-7---|
A|--7-7-7-7-7-7-7-7--9-9-9-9-9-9-9-9--7-7-7-7-7-7-7-7-7-7-7-7---|
E|-------------------7-7-7-7-7-7-7-7--5-5-5-5-5-5-5-5-5-5-5-5---|

Guitar 2

....(w/wah pedel).....
e|--------------------------------------------------------------|
B|--------------------------------------------------------------|
G|--9-9-9-9-9-9-9-9--11-11-11-11-11----------9-11---------9-11--|
D|--x-x-x-x-x-x-x-x--x--x--x--x--x------9-11---------9-11-------|
A|--7-7-7-7-7-7-7-7--9--9--9--9--9------------------------------|
E|--------------------------------------------------------------|

(Repeat twice)

[Outro part 1]

So take a look at me now
So take a look at me now
So take a look at me now
So take a look at me now


Guitar 1

E B A

e|------------------------------------5-5-5-5-5-5-5-5-5-5-5-5---|
B|------------------------------------5-5-5-5-5-5-5-5-5-5-5-5---|
G|--9-9-9-9-9-9-9-9--8-8-8-8-8-8-8-8--6-6-6-6-6-6-6-6-6-6-6-6---|
D|--9-9-9-9-9-9-9-9--9-9-9-9-9-9-9-9--7-7-7-7-7-7-7-7-7-7-7-7---|
A|--7-7-7-7-7-7-7-7--9-9-9-9-9-9-9-9--7-7-7-7-7-7-7-7-7-7-7-7---|
E|-------------------7-7-7-7-7-7-7-7--5-5-5-5-5-5-5-5-5-5-5-5---|


Guitar 2


e|-----------------------------------------------------------------|
B|------5-7------5-7------5-7------5-7------5-7------5-7-------5-7-|
G|--4-6------4-6------4-6------4-6------4-6------4-6------4-6------|
D|-----------------------------------------------------------------|
A|-----------------------------------------------------------------|
E|-----------------------------------------------------------------|

[Outro part 2]

So take a look at me now
So take a look at me now
So take a look at me now
So take a look at me now

Guitar 1

e|-----------------------------------------------------------------|
B|-----------------------------------------------------------------|
G|-----------------------------------------------------------------|
D|--9-9-9-9-9-9-9-9-9-9-9-9-9-13-13-13-13-13-13-14-14-14-14-14-14--|
A|-----------------------------------------------------------------|
E|-----------------------------------------------------------------|



************************************

| x Dead note
| r Release
| b Bend
| / Slide up

************************************
Tunning: Standard (E A D G B e)
Standard Tuning

I'm pretty sure Kelly used a Jaguar on this song. You can get the tone easily with a
strat with the middle pickup selected. You'll want a thin distortion as well (I play
through a Marshall MG100 with OD2 selected and the gain set to 5). You may also want
a wah, a phaser and probably a flange pedal as well.


[Intro]

(Fig. 1)

Gtr. 1- This is probably played on a synth but you can get the desired
effect with distortion and a slow heavy flange

P.M.-----------------------------------------------------------------|

e|--------------------------------------------------------------------|
B|--------------------------------------------------------------------|
G|--------------------------------------------------------------------|
D|-/9-9-9-9-9-9-9-9-9-9-9-9-9-9-9-9\-6-6-6-6-6-6-6-6-6-6-6-6-6-6-6-6\-|
A|-/7-7-7-7-7-7-7-7-7-7-7-7-7-7-7-7\-4-4-4-4-4-4-4-4-4-4-4-4-4-4-4-4\-|
E|--------------------------------------------------------------------|

P.M.---------------------------------------------------------------|

e|------------------------------------------------------------------|
B|------------------------------------------------------------------|
G|------------------------------------------------------------------|
D|-2-2-2-2-2-2-2-2-2-2-2-2-2-2-2-2/-9-9-9-9-9-9-9-9-9-9-9-9-9-9-9-9-|
A|-0-0-0-0-0-0-0-0-0-0-0-0-0-0-0-0/-7-7-7-7-7-7-7-7-7-7-7-7-7-7-7-7-|
E|------------------------------------------------------------------|


[Verse]

Gtr. 1- plays figure 1
Gtr. 2- keep repeating this

e|-7---7---7---7---7---7---7---7---|
B|---9---9---9---9---9---9---9---9-|
G|---------------------------------|
D|---------------------------------|
A|---------------------------------|
E|---------------------------------|

Gtr. 3

e|---12----12--11v-----12-----------------------------|
B|------------------------12v--------12v----------12v-|
G|-9------------------------------9------------9------|
D|----------------------------------------------------|
A|----------------------------------------------------|
E|----------------------------------------------------|

Gtr. 4-plays in verse 2 and 3

e|-------------------------------------------|
B|-9v----9b(10)r9v---------9v----12b(14)r12v-|
G|-------------------------------------------|
D|-------------------------------------------|
A|-------------------------------------------|
E|-------------------------------------------|


[Chorus]

Gtr. 3-play this part at end of verse

e|---------------------------------|
B|---------------------------------|
G|-9-9-9-9-9-9-9-9-9-9-9-9-9-9-9-9-|
D|---------------------------------|
A|---------------------------------|
E|---------------------------------|

Gtr. 1- flange off
Gtr. 3

You made me feel like the one, Made me feel like the one

e|-----------------------------------------------------------------|
B|-----------------------------------------------------------------|
G|-----------------------------------------------------------------|
D|-7-7-7-7-7-7-7-7-7-7-7-7-7-7-7-7-7-7-7-7-7-7-7-7-7-7-7-7-7-7-7-7-|
A|-7-7-7-7-7-7-7-7-7-7-7-7-7-7-7-7-7-7-7-7-7-7-7-7-7-7-7-7-7-7-7-7-|
E|-5-5-5-5-5-5-5-5-5-5-5-5-5-5-5-5-5-5-5-5-5-5-5-5-5-5-5-5-5-5-5-5-|
|
e|-11b(12)-11v------------------------11b(12)-11v------------------|
B|--------------------12v---9v--------------------------12v----9v--|
G|-----------------------------------------------------------------|
D|-----------------------------------------------------------------|
A|-----------------------------------------------------------------|
E|-----------------------------------------------------------------|

e|-----------------------------------------------------------------|
B|-----------------------------------------------------------------|
G|-----------------------------------------------------------------|
D|-2-2-2-2-2-2-2-2-2-2-2-2-2-2-2-2-2-2-2-2-2-2-2-2-2-2-2-2-2-2-2-2-|
A|-2-2-2-2-2-2-2-2-2-2-2-2-2-2-2-2-2-2-2-2-2-2-2-2-2-2-2-2-2-2-2-2-|
E|-0-0-0-0-0-0-0-0-0-0-0-0-0-0-0-0-0-0-0-0-0-0-0-0-0-0-0-0-0-0-0-0-|
|
e|-----------------------------------------------------------------|
B|-9b(10)r9b(10)r9b(10)r9---------9b(10)r9b(10)r9b(10)r9-----------|
G|-----------------------------------------------------------------|
D|---------------------------------------------------------(X\)----|
A|---------------------------------------------------------(X\)----|
E|-----------------------------------------------------------------|

pick scrape on repeat


[Bridge]

Gtr. 1-plays chords in 16th notes

e|---------------|
B|---------------|
G|-9-------------|
D|-9-----9-----7-|
A|-7-----9-----7-|
E|-------7-----5-|

Gtr. 3-plays this on A5 chord. Uses either wah or phaser, but a fast heavy
flange works fine.

e|-------------------------------------------|
B|-------------------------------------------|
G|------------9v---11v--------------9v---11v-|
D|-9v---11v--------------9v---11v------------|
A|-------------------------------------------|
E|-------------------------------------------|

[Outro]

Gtr. 1-with flange and PM. Play in 16th notes.

e|--------------------------------|
B|--------------------------------|
G|--------------------------------|
D|-9------13------14------14------|
A|-7------11------12------12------|
E|--------------------------------|


************************************

| P.M. Palm Mute
| V Vibrato
| B Bend Note
| R Release Bent Note
| X/ Pick Scrape
| / Slide

************************************
Tunning: Standard (E A D G B e)
[Intro]

[Riff 1] (x2) (Second time w/ Riff 2 and Riff 3)

e|---------------------|-----------------|-----------------|------------------|
B|---------------------|-----------------|-----------------|------------------|
G|---------------------|-----------------|-----------------|------------------|
D|-9-(9)-9-9-9-9-9-9-9-|-9-9-9-9-9-9-9-9S|-6-6-6-6-6-6-6-6-|-6-6-6-6-6-6-6-6S=|
A|---------------------|-----------------|-----------------|------------------|
E|---------------------|-----------------|-----------------|------------------|


e|-----------------|-----------------|-----------------|------------------|
B|-----------------|-----------------|-----------------|------------------|
G|-----------------|-----------------|-----------------|------------------|
D|-2-2-2-2-2-2-2-2-|-2-2-2-2-2-2-2-2S|-9-9-9-9-9-9-9-9-|-9-9-9-9-9-9-9-9--|
A|-----------------|-----------------|-----------------|------------------|
E|-----------------|-----------------|-----------------|------------------|


[Riff 2]

E C#m
e|-------------------------|-------------------------|-------------------------|
B|-12----12----12----12----|-12----12----12----12----|-14----14----14----14----|
G|----13----13----13----13-|----13----13----13----13-|----13----13----13----13-|
D|-------------------------|-------------------------|-------------------------|
A|-------------------------|-------------------------|-------------------------|
E|-------------------------|-------------------------|-------------------------|


C#m Amaj7
e|-------------------------|-------------------------|---------------------------|
B|-14----14----14----14----|-------------------------|---------------------------|
G|----13----13----13----13-|----13----13----13----13-|------13----13----13----13-|
D|-------------------------|-14----14----14----14----|--14-----14----14----14----|
A|-------------------------|-------------------------|---------------------------|
E|-------------------------|-------------------------|---------------------------|

E
e|------------------------|------------------------|
B|-12---12----12----12----|-12---12----12----12----|
G|------------------------|------------------------|
D|---14----14----14----14-|---14----14----14----14-|
A|------------------------|------------------------|
E|------------------------|------------------------|


[Riff 3]

(with Riff 1)
e|------------------|
B|------------------|
G|-------------9----| (pick up note on last bar of Riff 1)
D|------------------|
A|------------------|
E|------------------|

(with Riffs 1 and 2)
e|-12-------------------|-11----------------|----------------|-----------------|
B|----------------------|-------------------|-12-------------|-(12)------------|
G|-----------------9----|--------------9- --|----------------|-----------9-----|
D|----------------------|-------------------|----------------|-----------------|
A|----------------------|-------------------|----------------|-----------------|
E|----------------------|-------------------|----------------|-----------------|

e|----------------------|--------------------|---------------|-----------------
B|-12-------------------|-(12)---------------|-12------------|-(12)------------|
G|----------------------|---------------9----|---------------|-----------------|
D|----------------------|--------------------|---------------|-----------------|
A|----------------------|--------------------|---------------|-----------------|
E|----------------------|--------------------|---------------|-----------------|


[Verse 1]
(with Riff 1 and Riff 2)

E C#m
Thinking back, thinking of you
Amaj7
Summertime think it was June.
E
Yeah, I think it was June.

E C#m
Laying back head on the grass,
Amaj7
Chewing gum, having some laughs,
(w/ Riff 4) E
Yeah, having some laughs.


[Riff 4]

PM----------------------------------------------
e|-0--0--0--0--0--0--0--0|-0--0--0--0--0--0--0--0|-0--0--0--0--0--0--0--0|-0--0--0--0--0|
B|12-12-12-12-12-12-12-12|12-12-12-12-12-12-12-12|12-12-12-12-12-12-12-12|12-12-12-12-12|
G|-----------------------|-----------------------|-----------------------|--------------|
D|-----------------------|-----------------------|-----------------------|--------------|
A|-----------------------|-----------------------|-----------------------|--------------|
E|-----------------------|-----------------------|-----------------------|--------------|


[Chorus]

A (w/ Riff 5)
You made me feel like the one,
E (w/ Riff 6)
Made me feel like the one, the one.
A (w/ Riff 5)
You made me feel like the one,
E (w/ Riff 6)
Made me feel like the one, the one.


[Riff 5]

|Guitar 1:
e|--12------11------|----------------|--12-----11------|---------------|
B|------------------|-12-------------|-----------------|-12------------|
G|------------------|---------13-----|-----------------|--------13-----|
D|------------------|----------------|-----------------|---------------|
A|------------------|----------------|-----------------|---------------|
E|------------------|----------------|-----------------|---------------|
|
|Guitar 2:
e|------------------|----------------|-----------------|---------------|
B|--14------12------|----------------|--14-----12------|---------------|
G|------------------|-13-------------|-----------------|-13------------|
D|------------------|---------14-----|-----------------|--------14-----|
A|------------------|----------------|-----------------|---------------|
E|------------------|----------------|-----------------|---------------|


[Riff 6]

|Guitar 1:
e|---------------------------------------|---------------------------------------|
B|---------------------------------------|---------------------------------------|
G|-13-b14r==(13)b14r==(13)b14r==(13)b14==|-13-b14r==(13)b14r==(13)b14r==(13)b14==|
D|---------------------------------------|---------------------------------------|
A|---------------------------------------|---------------------------------------|
E|---------------------------------------|---------------------------------------|
|
|Guitar 2:
e|---------------------------------------|---------------------------------------|
B|---------------------------------------|---------------------------------------|
G|---------------------------------------|---------------------------------------|
D|-14-b16r==(14)b16r==(14)b16r==(14)b16==|-14-b16r==(14)b16r==(14)b16r==(14)b16==|
A|---------------------------------------|---------------------------------------|
E|---------------------------------------|---------------------------------------|


[Verse 2]
(w/ Riff 2 and Riff 3)

E C#m
Drinking by drinking for two,
Amaj7 E
Drinking with you, when drinking was new.
E C#m
Sleeping in the back of my car,
Amaj7 (w/ Riff 4) E
We never went far, didn't need to go far.


[Chorus]


[Bridge]

E B A (w/ Riff 7)
I don't know where we are goin' now.


[Riff 7]

e|-------------------|-------------------|
B|-------------------|-------------------|
G|----------9---11---|----------9---11---|
D|-9---11------------|-9---11------------|
A|-------------------|-------------------|
E|-------------------|-------------------|

E B A (w/ Riff 7)
I don't know where we are goin' now.


[Verse 3]
(w/ Riff 1 and Riff 2)

E C#m
Wake up call, coffee and juice,
A E
Remembering you, what happened to you?
E (w/ Riff 3) C#m
I wonder if we'll meet again?
A maj7 (w/ Riff 4) E
Talk about life since then, talk about why did it end.


[Chorus]


[Outro]

E B A (w/ Riff 7)
I don't know where we are goin' now.
E B A (w/ Riff 7)
I don't know where we are goin' now.
E B
So take a look at me now. So take a look at me now.
A (w/ Riff 7)
So take a look at me now. So take a look at me now.
E (w/ Riff 7) B (w/ Riff 7)
So take a look at me now. So take a look at me now.
A (w/ Riff 7)
So take a look at me now. So take a look at me now.
E
Take a look at me now.

(w/ Riff 1 to end)
So take a look at me now. So take a look at me now.
So take a look at me now. So take a look at me now.
So take a look at me now. So take a look at me now.
So take a look at me now. So take a look at me now.
Now.



************************************

| (n) Ghost note
| b Bend
| S slide
| r release

************************************
Song info
Dakota
Stereophonics
2001
  • Rock
  • Brit Pop
  • Pop Rock
Alternative tracks
Similar songs
Spicks And Specks - Bee Gees
Heartbreaker - Pat Benatar
December 1963 - The Four Seasons
Tore Down - Eric Clapton

Hi! Hope you enjoy backing track experience.
If you want to help us in the development of the project, feel free to donate!