The Joker - Steve Miller
00:00 / 00:00
Tabs and lyrics
Tunning: D tuning (D G C F A D)
[Verse]

D||---------------------------|------------------------------|
A||---------------------------|------------------------------|
F||*--------------------------|------------------------------|
C||*----------------------0h2-|--0--0------------------------|
G||-----------0h2-3--3--------|----------0-2-3-3-3-3-2-2-0---|
D||---3--3--------------------|----------------------------2h|

3x
D|--------------------------|-------------------------------||
A|--------------------------|-------------------------------||
F|--------------------------|--------------------------0-0-*||
C|----------------------0-2-|--0--0----------------0h2-----*||
G|----------0-2-3--3--------|----------0-2-3-3-3-3----------||
D|--3--3--------------------|-------------------------------||


[Chorus]

D|---------------------------------|-------------------------------|
A|--------0--------------1---------|------0--------------1---------|
F|*-------0-----0----0---0-----0-0-|------0-------0----0-----------|
C|*-------0----------------0h2-----|------0-----0------2-----------|
G|----------0h2----3---3-----------|--------0h2-----3------2-2-0-0-|
D|---3--3--------------------------|--3----------------------------|

3x
D|-----------------------------|------------------------------||
A|-----------------------------|--3--3--3-3--3-1--1-----------||
F|------0---0---0-0---0-----0--|--2--2--2-2--2-0--0------0-0-*||
C|--------0---0---2-----0h2----|--0--0--0-0--0-2--2--0h2-----*||
G|----------------3------------|---------------3--3-----------||
D|--3--------------------------|------------------------------||

[End of Chorus]
D|------------------------0-0-||---------------------------|
A|--3--3--3-3--3-1--1--1--1-1-||---------------------------|
F|--2--2--2-2--2-0--0--0------||*--------------------------|
C|--0--0--0-0--0-2--2---------||*----------------------0h2-|
G|---------------3--3---------||-----------0h2-3--3--------|
D|----------------------------||---3--3--------------------|

D|------------------------------|--------------------------|
A|------------------------------|--------------------------|
F|------------------------------|--------------------------|
C|--0--0------------------------|----------------------0-2-|
G|----------0-2-3-3-3-3-2-2-0---|----------0-2-3--3--------|
D|----------------------------2h|--3--3--------------------|

3x
D|-------------------------------||---------------------------------|
A|-------------------------------||--------0--------------1---------|
F|--------------------------0-0-*||*-------0-----0----0---0-----0-0-|
C|--0--0----------------0h2-----*||*-------0----------------0h2-----|
G|----------0-2-3-3-3-3----------||----------0h2----3---3-----------|
D|-------------------------------||---3--3--------------------------|


D|-------------------------------|-----------------------------|
A|------0--------------1---------|-----------------------------|
F|------0-------0----0-----------|------0---0---0-0---0-----0--|
C|------0-----0------2-----------|--------0---0---2-----0h2----|
G|--------0h2-----3------2-2-0-0-|----------------3------------|
D|--3----------------------------|--3--------------------------|

5x
D|------------------------------||------------------------0-0-|
A|--3--3--3-3--3-1--1-----------||--3--3--3-3--3-1--1--1--1-1-|
F|--2--2--2-2--2-0--0------0-0-*||--2--2--2-2--2-0--0--0------|
C|--0--0--0-0--0-2--2--0h2-----*||--0--0--0-0--0-2--2---------|
G|---------------3--3-----------||---------------3--3---------|
D|------------------------------||----------------------------|


D|---------------------------|------------------------------|
A|---------------------------|------------------------------|
F|*--------------------------|------------------------------|
C|*----------------------0h2-|--0--0------------------------|
G|-----------0h2-3--3--------|----------0-2-3-3-3-3-2-2-0---|
D|---3--3--------------------|----------------------------2h|

3x
D|--------------------------|-------------------------------||
A|--------------------------|-------------------------------||
F|--------------------------|--------------------------0-0-*||
C|----------------------0-2-|--0--0----------------0h2-----*||
G|----------0-2-3--3--------|----------0-2-3-3-3-3----------||
D|--3--3--------------------|-------------------------------||




[Lyrics]

Verse:
Some people call me the space cowboy, yeah
Some call me the gangster of love
Some people call me Maurice
Cause I speak of the pompitous of love

People talk about me, baby
Say I'm doin' you wrong, doin' you wrong
Well, don't you worry baby
Don't worry
Cause I'm right here, right here, right here, right here at home

Chorus:
Cause I'm a picker
I'm a grinner
I'm a lover
And I'm a sinner
I play my music in the sun

I'm a joker
I'm a smoker
I'm a midnight toker
I get my lovin' on the run
Wooo Wooooo

Verse:
You're the cutest thing
That I ever did see
I really love your peaches
Want to shake your tree
Lovey-dovey, lovey-dovey, lovey-dovey all the time
Ooo-eee baby, I'll sure show you a good time

Chorus:
Cause I'm a picker
I'm a grinner
I'm a lover
And I'm a sinner
I play my music in the sun

I'm a joker
I'm a smoker
I'm a midnight toker
I sure don't want to hurt no one

Wooo Woooo

Verse (Outro):
People keep talking about me baby
They say I'm doin' you wrong
Well don't you worry, don't worry, no don't worry mama
Cause I'm right here at home

You're the cutest thing I ever did see
Really love your peaches want to shake your tree
Lovey-dovey, lovey-dovey, lovey-dovey all the time
Come on baby and I'll show you a good time


************************************

| h Hammer-on

************************************
Tunning: Standard (E A D G B e)
This Version Of The Joker Was Not Available On UG So Im Posting It In

Verse 1
4/4
Gtr I
W e E +E S S e E E S S
|----------|-----------------------|
|----------|-----------------------|
|----------|-----------------------|
|----------|-------------------0h2-|
|----------|---------0-2-3-3-------|
|----------|-3-3-(3)---------------|

D C G C
e E E S S S S S S S S S S e E E S S e E E S S
|---------------------------|----------------------|
|---------------------------|----------------------|
|---------------------------|----------------------|
|-0-0-----------------------|-----------------0h2--|
|-------0-2-3-3-3-3-2-2-----|-------0-2-3-3--------|
|-----------------------0-2-|-3-3------------------|

D C G C
PM--------|
e E E S S S S S S S S S S +Q H.
|---------------------------|------------------------|
|---------------------------|------------------------|
|-----------------------0-0-|-(0)--------------------|
|-0-0---------------0h2-----|--------------------0h2-|
|-------0-2-3-3-3-3---------|----------0h2-3-3-------|
|---------------------------|--3--3------------------|
| e E E S S e E E S S
|
| Gtrs III, IV
| W W
|---------------------------|------------------------|
|---------------------------|------------------------|
|---------------------------|------------------------|
|---------------------------|------------------------|
|---------------------------|------------------------|
|---------------------------|------------------------|

D C
PM------------------|
e E E S S S S S S S S S S
|--------------------------------|
|--------------------------------|
|--------------------------------|
|-0-0----------------------------|
|----------0-2--3--3-3-3-2-2-0-0-|
|--------------------------------|
|
| Q a E S S Q Q
|-----8s21---8s16\---------------|
|--------------------------------|
|--------------------------------|
|--------------------------------|
|--------------------------------|
|--------------------------------|

G C D C
PM------|
E E E S S E E E S S E E E S S S S S S S S S S
|---------------------|---------------------------||
|---------------------|---------------------------||
|---------------------|-----------------------0-0-||
|-----------------0h2-|-0-0---------------0-2-----||
|-------0h2-3-3-------|-------0-2-3-3-3-3---------||
|-3-3-----------------|---------------------------||

Verse 2
+W e E E S S S S S S S S S S e E E S S e E E S S
|-------------------------|---------------------------|---------------------|
|-------------------------|---------------------------|---------------------|
|-(0)---------------------|---------------------------|---------------------|
|---------------------0h2-|-0-0-----------------------|-----------------0h2-|
|-----------0-2-3-3-------|-------0-2-3-3-3-3-2-2-----|-------0-2-3-3-------|
|--3--3-(3)---------------|-----------------------0-2-|-3-3-----------------|
e E +E S S e E E S S


PM--------|
e E E S S S S S S S S S S
|---------------------------|
|---------------------------|
|-----------------------0-0-|
|-0-0---------------0h2-----|
|-------0-2-3-3-3-3---------|
|---------------------------|

PM----------------|
+Q H. e E E S S S S S S S S S S
|------------------------|----------------------------|
|------------------------|----------------------------|
|-(0)--------------------|----------------------------|
|--------------------0h2-|-0-0------------------------|
|----------0h2-3-3-------|-------0-2-3-3-3-3-2-2-0-0--|
|--3--3------------------|----------------------------|
e E E S S e E E S S

G C D C
PM----------------|
E E E S S E E E S S E E E S S S S S S S S S S
|---------------------|---------------------------||
|---------------------|---------------------------||
|---------------------|---------------------------||
|-----------------0h2-|-0-0-----------------------||
|-------0h2-3-3-------|-------0-2-3-3-3-3-2-2-0-0-||
|-3-3-----------------|---------------------------||

Chorus 1
G C
Gtr I
E S S S S S S S S S S S S S S
|-------------------------------------|
|----0--0-------------1---1-----------|
|----0--0-------0-0-0-0-----------0-0-|
|----0----------0-0-2-2-2----0h=2-----|
|----------0h=2-----3---3-------------|
|-3-----------------------------------|
|
| Gtr II
| E S S +E E E S S +S E S
|-------------------------------------|
|-------------------------------------|
|-------------------------------2-----|
|---------------2---------2-(2)-----2-|
|---(2)-2-(2)-------0---0-------------|
|-0-----------------------------------|

G C G C
E. S S S S S E S S +S S S S E S S S S S S E. S S S E
|--------------------------------|----------------------------------|
|----0---------0---1-------1-----|-----0----------------1-----------|
|--------------0---0-------0---0-|---0-----------0--------------0---|
|------------0-------------------|-------------0---2-------0h=2-----|
|-------0h=2-----3---2-(2)---0---|--------0h=2-----3----------------|
|-3------------------------------|-3--------------------------------|
|
| E. S +S S S S E S S +S S S S E S S +S S S S E S S +S E S
|--------------------------------|----------------------------------|
|----------------------------2-2-|----------------------------------|
|------------1-1-----2-(2)---2-2-|--------------------2-2-(2)-2---2-|
|----------2-2-2-----2-(2)-2-----|-----------2---2----2-2-(2)-2---2-|
|----2-(2)-------0-0-------------|---2-2-(2)---2---0--0-0-(0)-------|
|-0------------------------------|-0--------------------------------|

D C G C
E. S S E S E E S S E E. S S S S S E S S S S S S
|--------2-2--------------|--------------------------------------|
|-3------3-3-x------------|----0-------------1-1-----------------|
|-2----2-2-2-x-----0----0-|------------0-----0-0--------0--------|
|-0--------------2-0h2----|----------0------------0h=2-----------|
|--------------3-3--------|------0h2-----3-----------------------|
|-------------------------|-3--------------------------------3---|

|--3---|
| E E S E S E E S E. E. S E S S S S S S +S S +S S S
|--------------------0----|------0-----0-------------------------|
|--------------2-2-0-2----|------0-------------------------------|
|----4---4-4-4-2-2-2-2----|------1---1---------------2-(2)-2---2-|
|----4---4-4-4-2-2-2-2----|----2-2---2-----2---2-(2)-2-(2)-2---2-|
|-2------2-2---0----------|----2---------0---0-------------------|
|-------------------------|-0------------------------------------|












G C
E. S S S S S E S S S S E
|---------------------------------|
|----0-------0-----1-1------------|
|------------------0-0-------0----|
|----------0---(2)-----0h==2------|
|------0h2------3-----------------|
|-3-------------------------------|


| E. S S E S E S S S a S S S
|---------------------------------|
|---------------------------------|
|----1---1-----------2---2s4-2-2--|
|----2---2---2-----2-2-------2----|
|---------------0------0-----0----|
|-0----0--------------------------|

G C D C
|--3--|
E S S S S S S S S E S S S E E S S E S S E S S S S S S
|-----------------------------------|-------2-------------------------|
|---0-0-------0---------------------|-3-3-3-3---3-3-------------------|
|---0-0-----------0-----------------|-2-2-2-2---0-2---0-0-------0-0---|
|-----------0-------2---0h2---0-2---|-0-0-0-----------2-2-0h2---------|
|-------0h2-----3-------------------|---------------3-----------------|
|-3---------------------------------|---------------------------------|
|
| |-3-| |-3-|
| E S S S S S S S S S S S E S E E S E S E E E S E S
|-----------------------------------|---------------------------------|
|-----------------------------------|-----------------2---0---2-------|
|---1-1---1-------2-2-------2-----2-|-4-4---4-4---4---2---2-----2---2-|
|---2-2---2---2-----2-2-2---2-------|-4-4---4-4---4---2---2-----2---2-|
|-------2---2---0-------0-----------|-2-2---2-2---2-0-----------------|
|-0---------------------------------|---------------------------------|

G C
S S S S S S S S S S S S S S S S
|-------------------------------------|
|----0-0-0-------------1-1------------|
|------0---------0-------------0-0----|
|------0-------0-0-2-2-----0h2--------|
|----------0h2-----3-3----------------|
|-3-----------------------------------|
|
| E. S S S S S E S S S E S
|-0------0-0-0-0-0-0---0-0-0-0---0----|
|-0------0-0-0-0-0-2---2-2-2-2---2----|
|-1------1-1-1-1-1-2---2-2-2-2---2----|
|-2------2-2-2-2-2-2---2-2-2-2---2----|
|-2------2-2-2-2-2-0---0-0-0-0---0----|
|-0------0-0-0-0-0--------------------|

G C
S S S S S S S S E S S +S S S S
|-----------------------------------|
|---0---0-----0-0-----1-------1---0-|
|-------------0-------0-------0---0-|
|---------------------------------0-|
|---------0h2-----3-----2-(2)---0---|
|-3---3-----------------------------|
|
| S S S S S E S S S S S S S S S
|-0-0-0-0-0-0---0-0-0-0-0--0--0-0-0-|
|-0-0-0-0-0-0---0-2-2-2-2--2--2-2-2-|
|-1-1-1-1-1-1---1-2-2-2-2--2--2-2-2-|
|-2-2-2-2-2-2---2-2-2-2-2--2--2-2-2-|
|-2-2-2-2-2-2---2-0-0-0-0--0--0-0-0-|
|-0-0-0-0-0-0---0-------------------|

G C D Dsus4D C
|3|
S S S S S S E E S S S E E S S S S S S S s S S S S S S S S
|-----------------------------------|---2-----2-3--2-2---0-------------|
|---0-0-0---------1----1-1----------|-3---3-3-3-3--3-3---1-1-1-----0-0-|
|---0-0-----------0----0-0----------|-2---2---2-2--2-2---0-0-0-----0-0-|
|-----0-------0---2----2-2-0h2------|-0---0---0-0--0-0-2-------0h2-----|
|---------0-2-----3----3-3--------3-|------------------3---------------|
|-3---------------------------------|----------------------------------|
|
| S E S E S S S E. S E. E E S E. E E S S S S
|-0-0---0-0---0-0-0-0------0---0----|------------------0---0---0-0-0-0-|
|-0-0---0-0---0-0-2-2------2---2----|------------------2---2---0-2-2-2-|
|-1-1---1-1---1-1-2-2------2---2----|-4---4---4-4------2---2---2-2-2-2-|
|-2-2---2-2---2-2-2-2------2---2----|-4---4---4-4------2---2---2-2-2-2-|
|-2-2---2-2---2-2-0-0------0---0----|-2---2---2-2------0---0---0-0-0-0-|
|-0-0---0-0---0-0-------------------|----------------------------------|

G C G C
S S S S S S E S S S S S S S S E S S S S S S S S S S S S S S
|---------------------------------|-----------------------------------|
|---0-0-0-----------1---1---------|----0-0-------(0)---1---1----------|
|-----0-0-----0---0-0-0---0-0---0-|----0-0-----0-----0-0-0-------0-0--|
|-----0-------0---2-------2-0---2-|------------0-----2-0-2---0h2------|
|---------0h2-----3-----------3---|--------0h2-------3----------------|
|-3-------------------------------|-3---------------------------------|
|
| S S S S S E S E S S S E S E. S S S S S E S S S E S
|-0-0-0-0-0-0---0-0---0-0-0-0---0-|------------------0---0-0-0-0---0--|
|-0-0-0-0-0-0---0-2---2-2-2-2---2-|------------------2---2-2-0-2---2--|
|-1-1-1-1-1-1---1-2---2-2-2-2---2-|-1----1-1-1-1--1--2---2-2-2-2---2--|
|-2-2-2-2-2-2---2-2---2-2-2-2---2-|-2----2-2-2-2--2--2---2-2-2-2---2--|
|-2-2-2-2-2-2---2-0---0-0-0-0---0-|-2----2-2-2-2--2--0---0-0-0-0---0--|
|-0-0-0-0-0-0---0-----------------|-0----0-0-0-0--0-------------------|

G C D Dsus4
S S S S S S S S S S S S a S S E E S S S E. E S S S S S S
|-----------------------------------|-------2-3--3-----3-------|
|---0---0-------------1-1-1---------|---3-3-3-3--3-3-3-3-3-3-3-|
|---0-0-0--------0----0-0-----------|-2-2-2-2-2--2-2-2-2-2-2-2-|
|--------------0---2----2---0h2p0---|-0------------------------|
|---------0h2------3--------------3-|--------------------------|
|-3---------------------------------|--------------------------|
|
| E S S S E. E. S S S E E S S S E. E S S S S S S
|-0---0-0-0-0------0------0---0-0-0-|--------------------------|
|-0---0-0-0-0------2------2---2-2-2-|-------4-5--5-5-5-5-5-5-5-|
|-1---1-1-1-1------2------2---2-2-2-|-4-4-4-4-4--4-4-4-4-4-4-4-|
|-2---2-2-2-2------2------2---2-2-2-|-4-4-4-4-4--4-4-4-4-4-4-4-|
|-2---2-2-2-2------0------0---0-0-0-|-2-2-2-2-2--2-2-2-2-2-2-2-|
|-0---0-0-0-0-----------------------|--------------------------|

S S S S +S S S S H
|-3-3---3-(3)-3-3-3---3--------------||
|-3-3-3-3-(3)-3-3-3---3--------------||
|-2-2-2-2-(2)-2----------------------||
|------------------------------------||
|------------------------------------||
|------------------------------------||
|
| S S S S +S S S S a E S S S S S S
|-------------------0----------------||
|-------4-(4)-4-----1s3-3-3----------||
|---4---4-(4)-4-4-4---------2-1------||
|---4-4-4-(4)-4-4-4-------------2-1--||
|-2-------------2--------------------||
|------------------------------------||

Guitar Solo 1
G C D C
Gtr I
E E +E S S E E E S S E E E S S S S S S S S S S
|---------------------------------|-----------------------------------|
|---------------------------------|-----------------------------------|
|---------------------------------|-----------------------------------|
|-----------------------------0h2-|---0--0----------------------------|
|----------------0-2---3--3-------|----------0-2--3--3-3--3--2-2------|
|--3-------3-(3)------------------|-------------------------------0-2-|

| Gtrs III, IV
| ~~~~~~~~~~~~~~~~~~~~~~~~~~~~~~~~~~
| S Q.. +H +Q. E S E S E E
|-13s=15-------------(15)---------|-(15)---------15s13----------------|
|---------------------------------|----------------------15s13--------|
|---------------------------------|------------------------------15---|
|---------------------------------|------------------------------15---|
|---------------------------------|-----------------------------------|
|---------------------------------|-----------------------------------|

| Gtr II
>
| W +W
|---------------------------------|-----------------------------------|
|---------------------------------|-----------------------------------|
|---------------------------------|-----------------------------------|
|---------------------------------|-----------------------------------|
|---------------------------------|-----------------------------------|
|-(0)-----------------------------|--(0)------------------------------|






G C
E E E S S E E E S S
|---------------------------------------------|
|---------------------------------------------|
|---------------------------------------------|
|-----------------------------------------0h2-|
|------------------------0-2---3--3-----------|
|-----3--3------------------------------------|
~~~~
| a E S S +S E. Q Q
|----------------------------(15)---(15)\-----|
|--------------------15------(15)---(15)\-----|
|-15s13-----/15-(15)--------------------------|
|-------15/-----------------------------------|
|---------------------------------------------|
|---------------------------------------------|
|
| W
|---------------------------------------------|
|---------------------------------------------|
|---------------------------------------------|
|---------------------------------------------|
|---------------------------------------------|
|---------------------------------------------|

D C
PM------------|
E E E S S S S S S S S S S
|-------------------------------------------------|
|-------------------------------------------------|
|--------------------------------------------0--0-|
|--0-----0-----------------------------0h=2-------|
|--------------------0--2--3--3--3--3-------------|
|-------------------------------------------------|
|
| S S S S S S S S S S S S S S S S
|-------------------------------------------------|
|-------------------------------------------------|
|-------------------------------------------------|
|-15s13----15s13----15s13----15s13----15-15-15-15-|
|-------15-------15-------15-------15-------------|
|-------------------------------------------------|

G C D C
E E E S S E E E S S E E E S S S S S S S S S S
|-----------------------------------|------------------------------------------------|
|-----------------------------------|------------------------------------------------|
|-----------------------------------|------------------------------------------------|
|------------------------------0h=2-|-----0--0---------------------------------------|
|--------------0h=2---3---3---------|--------------0--2--3-3--3-3-----2-2------------|
|---3--3----------------------------|--------------------------------------0-----2---|
|
| ~~ ~~
| E Q a S S +E Q S S a E E E S S E E a E S a S
|-----------------------------------|------------------------------------------------|
|-----15----------------------------|-------15-15----15s17---15----------------------|
|-/15------15s13--------------------|-13s15-------15-15s17--------14s13------13s15---|
|----------------15-(15)-15---15-15-|-------------------------------------15---------|
|-----------------------------------|------------------------------------------------|
|-----------------------------------|------------------------------------------------|

G C
E E E S S E E E S S
|----------------------------------------|
|----------------------------------------|
|----------------------------------------|
|-----------------------------------0h=2-|
|--------------0-2---3---3---------------|
|---3---3--------------------------------|
|
| +E E Q +E S S S E S
|---------(15)-----(15)-15s13s15---------|
|------15------------------------15------|
|-(15)--------------------------------14s|
|----------------------------------------|
|----------------------------------------|
|----------------------------------------|

D C
PM------------|
E E E S S S S S S S S S S
|-------------------------------------------||
|-------------------------------------------||
|--------------------------------------0--0-||
|--0--0--------------------------0h=2-------||
|--------------0--2--3--3--3--3-------------||
|-------------------------------------------||
|
| E E S S S S S S S S S S S S
|-------------------------------------------||
|-------------------------------------------||
|-13----------------------------------------||
|----15-15s13----15s13----15s13----15s13----||
|-------------15-------15-------15-------15-||
|-------------------------------------------||

Verse 3
G C
e E +E S S e E E S S
|-----------------------------|
|-----------------------------|
|-----------------------------|
|-------------------------0h2-|
|------------0-2---3--3-------|
|--3--3--(3)------------------|
|
| E Q. +H
|-----------------------------|
|-----------------------------|
|-----------------------------|
|-13s15----------(15)---------|
|-----------------------------|
|-----------------------------|

D C G C
e E E S S S S S S S S S S e E E S S e E E S S
|---------------------------|---------------------|
|---------------------------|---------------------|
|---------------------------|---------------------|
|-0-0-----------------------|-----------------0h2-|
|-------0-2-3-3-3-3-2-2-----|-------0-2-3-3-------|
|-----------------------0-2-|-3-3-----------------|
|
| W W
|---------------------------|---------------------|
|---------------------------|---------------------|
|---------------------------|---------------------|
|---------------------------|---------------------|
|---------------------------|---------------------|
|---------------------------|---------------------|

D C G C
PM--------|
e E E S S S S S S S S S S +Q H.
|---------------------------|------------------------|
|---------------------------|------------------------|
|-----------------------0-0-|-(0)--------------------|
|-0-0---------------0h2-----|--------------------0h2-|
|-------0-2-3-3-3-3---------|----------0h2-3-3-------|
|---------------------------|--3--3------------------|
| e E E S S e E E S S
|
| W W
|---------------------------|------------------------|
|---------------------------|------------------------|
|---------------------------|------------------------|
|---------------------------|------------------------|
|---------------------------|------------------------|
|---------------------------|------------------------|

D C
PM------------------|
e E E S S S S S S S S S S
|------------------------------|
|------------------------------|
|------------------------------|
|-0-0--------------------------|
|-------0-2-3--3-3-3-2-2--0-0--|
|------------------------------|
|
| H S E S E E
|-----------8s20-----8s==17s===|
|------------------------------|
|------------------------------|
|------------------------------|
|------------------------------|
|------------------------------|













G
PM------|
E E E S S E E E S S E E E S S S S S S S S S S
|---------------------|---------------------------||
|---------------------|---------------------------||
|---------------------|-----------------------0-0-||
|-----------------0h2-|-0-0---------------0-2-----||
|-------0h2-3-3-------|-------0-2-3-3-3-3---------||
|-3-3-----------------|---------------------------||






| E E Q H W
|-7-------------------|---------------------------||
|---------------------|---------------------------||
|---------------------|---------------------------||
|---------------------|---------------------------||
|---------------------|---------------------------||
|---------------------|---------------------------||

Chorus 2
G C
Gtr I
E E S S E E S S S S S S
|---------------------------------|
|----------0-0-0------------------|
|----(0)---0-0-0---0-0-0-0-0--0-0-|
|----(0)---0-0-0---2-2-2-2-2--2-2-|
|------------------3-3-3-3-3--3-3-|
|-3-------------------------------|
|
| Gtr II
| E. S S E S E S S S E.
|-0------0-0-0---0-0-0-0-0-0------|
|-0------0-0-0---0-2-2-2-2-2------|
|-1------1-1-1---1-2-2-2-2-2------|
|-2------2-2-2---2-2-2-2-2-2------|
|-2------2-2-2---2-0-0-0-0-0------|
|-0------0-0-0---0----------------|

G C G C
S S S S E S S E S S E S S S E S S S E E E E E
|-----------------------0-------|--------------------0-------|
|-0-0-0-0-0---0-0-------1-------|-0-0-----0-0--0-----1-------|
|-0-0-0-0-0---0-0-0-----0---0-0-|-0-0---0-0-0--0-0---0----0--|
|-0-0-0-0-0---0-0-2-2-2-2---2---|-0-----0-0-0--0-2-2-2----2--|
|-x-------x-------3-3---3---3---|-x-------x-x----3-3------3--|
|-3-------3---------------------|-3-------3-3----------------|
|
| E S S S S S S E S S S S E E S S S E. Q S E.
|-0---0-0-0-0-0-0-0-0-0-0-------|-0---0-0-0-0----0---0-0-----|
|-0---0-0-0-0-0-0-2-2-2-2-------|-0---0-0-0-0----2---2-2-----|
|-1---1-1-1-1-1-1-2-2-2-2-4-2---|-1---1-1-1-1----2---2-2-----|
|-2---2-2-2-2-2-2-2-2-2-2---2---|-2---2-2-2-2----2---2-2-----|
|-2---2-2-2-2-2-2-0-0-0-0---0---|-2---2-2-2-2----0---0-0-----|
|-0---0-0-0-0-0-0---------------|-0---0-0-0-0----------------|

D C G C
E S S S S E E S S S S E E S S S S S S S S S S S S S S
|---2-2----------------------|-----------------------0---------|
|-3-3-3-3-3-3---1-----1-1--1-|-------0-------0---1-------------|
|-2-2-2-2-2-2---0-----0-0--0-|---(0)---------------0-------0-0-|
|-0-----0-0-0---2-2-2-2-2--2-|-------------0-----------0h2-----|
|---------------3-3-3-3-3--3-|---------0h2-----3---------------|
|----------------------------|-3-------------------------------|
|
| E E S E S E E S E. E S S S S S S E S S S S E
|---------------0-0---0-0----|-0--0--0-0-0-0-0-0---0-0-0-------|
|---------------2-2---0-2----|-0--0--0-0-0-0-0-2---2-2-2-------|
|-4-4---4-4---4-2-2---2-2----|-1--1--1-1-1-1-1-2---2-2-2-4-2---|
|-4-4---4-4---4-2-2---2-2----|-2--2--2-2-2-2-2-2---2-2-2---2---|
|-2-2---2-2---2-0-0---0-0----|-2--2--2-2-2-2-2-0---0-0-0---0---|
|----------------------------|-0--0--0-0-0-0-0-----------------|

G C
E S S S S S S E S S S S S S
|------------------------------|
|----0-0-------0---1-1---------|
|----0-------------0-0-----0---|
|------------0---------0h2-----|
|--------0h2-----3-------------|
|-3--------------------------3-|
|
| E. S S S S S E S S S S S S
|-0----0-0-0-0-0-0-0-0-0---0-0-|
|-0----0-0-0-0-0-2-2-2-2-3-2-2-|
|-1----1-1-1-1-1-2-2-2-2-4-2-2-|
|-2----2-2-2-2-2-2-2-2-2-2-2-2-|
|-2----2-2-2-2-2-0-0-0-0-0-0-0-|
|-0----0-0-0-0-0---------------|

G C
S S S S S S S S S S S S s S S S
|--------------------------0-------0-|
|---0-----0--------0-----------------|
|--------------------------------0---|
|----------------0---2-2-----0-2-----|
|-----------0-2------3---3-----------|
|-3---(3)----------------------------|
|
| Q S E. E S S S S E
|-----------0-0------0---0-0-0-0-0---|
|-----------0-0------2---2-2-0-0-2---|
|-----------1-1------2---2-2-2-2-2---|
|-2---------2-2------2---2-2-2-2-2---|
|-2---------2-2------0---0-0-0-0-0---|
|-0---------0-0----------------------|

D C G C
E S S S S S S E S S S S S S E S S S S S S E S S S S s S
|-------2-2--------------------|----------------------0-----------|
|-3-----3-3--3-------1---------|--------0-------0-----------------|
|-2-2-2-2-2--2-----0-------0-0-|----(0)---------0---0--------0-0--|
|-0-0-0--------0-------0h2-----|----(0)-------0-----2---0-2-------|
|----------------3-------------|----------0-2-----3---------------|
|------------------------------|-3--------------------------------|
|
| E S S S E. E E S S E E. S S E S E S S S E.
|----------------0-0---0-0-0---|-0------0-0-0---0-0-0-0-0-0-------|
|---------4------2-2---0-0-2---|-0------0-0-0---0-2-2-2-2-2-------|
|-4-4-4-4-4------2-2---2-2-2---|-1------1-1-1---1-2-2-2-2-2-------|
|-4-4-4-4-4------2-2---2-2-2---|-2------2-2-2---2-2-2-2-2-2-------|
|-2-2-2-2-2------0-0---0-0-0---|-2------2-2-2---2-0-0-0-0-0-------|
|------------------------------|-0------0-0-0---0-----------------|

G C G C
E S S S S S S E S S S S S S S S S S S S E E S S S S E
|-------------------0---------|--------------------0--------|
|-----0-----------1-----------|---0---0----------1----------|
|-----------------0-------0-0-|---0---0----------0---0------|
|---0-------0-0-2-2---0h2-----|--------------0-------2-2--2-|
|-------0h2-----3-------------|---------0h2----3-------3--3-|
|-3---------------------------|-3---3-----------------------|
|
| E S S S S S S E S S S S E E S S S E. Q S E.
|-0-0-0-0-0-0-0-0-0-0-0-------|-0---0-0-0-0----0-----0-0----|
|-0-0-0-0-0-0-0-2-2-2-2-------|-0---0-0-0-0----2-----2-2----|
|-1-1-1-1-1-1-1-2-2-2-2-4-2---|-1---1-1-1-1----2-----2-2----|
|-2-2-2-2-2-2-2-2-2-2-2---2---|-2---2-2-2-2----2-----2-2----|
|-2-2-2-2-2-2-2-0-0-0-0---0---|-2---2-2-2-2----0-----0-0----|
|-0-0-0-0-0-0-0---------------|-0---0-0-0-0-----------------|

D C
E S S E S S E S S S S S S
|-2-----2-----------------------|
|-3-3-3-3---3-3---3-1-----------|
|-2-2-2-2---2-2-0-0-0------0-0--|
|-0-0-0-0---0-0-2-----0h2-------|
|---------------3---------------|
|-------------------------------|
|
| E E S E S E E S E.
|---------------0-0---0-0-------|
|---------------2-2---0-2-------|
|-4-4---4-4---4-2-2---2-2-------|
|-4-4---4-4---4-2-2---2-2-------|
|-2-2---2-2---2-0-0---0-0-------|
|-------------------------------|













G D G C
E S S S S S S E S S S S S S E S S S S E E S S S S E
|-------------------0---------|------------------------------|
|-----0-------0---1-----------|----0-0-------------1---------|
|---0-0-------0---0---0---0-0-|----0-------------0-------0---|
|---0-------0---------0h2-----|------------0---------0h2-----|
|-------0h2-----3-------------|--------0h2-----3-------------|
|-3---------------------------|-3----------------------------|
|
| E S S S S S S E S S S S E E. S S S S S E S S S S S S
|-0-0-0-0-0-0-0-0-0-0-0-------|-0----0-0-0-0-0-0-0-0-0---0-0-|
|-0-0-0-0-0-0-0-2-2-2-2-------|-0----0-0-0-0-0-2-2-2-2-3-2-2-|
|-1-1-1-1-1-1-1-2-2-2-2-4-2---|-1----1-1-1-1-1-2-2-2-2-4-2-2-|
|-2-2-2-2-2-2-2-2-2-2-2---2---|-2----2-2-2-2-2-2-2-2-2-2-2-2-|
|-2-2-2-2-2-2-2-0-0-0-0---0---|-2----2-2-2-2-2-0-0-0-0-0-0-0-|
|-0-0-0-0-0-0-0---------------|-0----0-0-0-0-0---------------|

G C D C
|--3--|
S S S S S S S S S S S S S S S E E S S S S S S S S S S S S S S
|------------------------------------|-2-2-2-2-2----------------------||
|---0---0--------0---1---1-----------|-3-3-3-3-3--------1---1---------||
|---0-0-0------------0-0-------------|-2-2-2-2-2--------0-0-------0-0-||
|-----0--------0-----------0h2p==0---|-0-0-0-0-0----------2---0h2-----||
|---------0h2------3---------------3-|------------0h2-3---------------||
|-3----------------------------------|--------------------------------||



| Q S E. E S S S S E E S S S E. E E S S E
|---------0-0------0---0-0-0---0---0-|----------------0---0---0-0-0---||
|---------0-0------2---2-2-0---0---2-|---------4------2---2---0-0-2---||
|---------1-1------2---2-2-2---2---2-|-4-4-4-4-4------2---2---2-2-2---||
|-2-------2-2------2---2-2-2---2---2-|-4-4-4-4-4------2---2---2-2-2---||
|-2-------2-2------0---0-0-0---0---0-|-2-2-2-2-2------0---0---0-0-0---||
|-0-------0-0------------------------|--------------------------------||

Guitar Solo 2
G C G C
Gtr I
S S S S S S S S S S S S S S S S S S S S S S S S E S S +S S S S
|---------------------------------------------|-------------------------------------------|
|--------0-0-0-------------1-1----------------|------0---0-----0-0-----1-------1--------0-|
|----------0---------0----------------0-----0-|----------------0-------0-------0--------0-|
|----------0-------0-0-2-2------0h=2----------|-----------------------------------------0-|
|--------------0h2-----3-3--------------------|------------0h2-----3-----2-(2)----0-------|
|-----3---------------------------------------|---3----3----------------------------------|
|
| Gtr II
| E. S S S S S E S S S E S S S S S S E S S S S S S S S S
|-----0------0-0-0-0-0-0---0-0--0--0--------0-|---0--0-0-0-0-0---0-0-0-0-0--0--0--0-----0-|
|-----0------0-0-0-0-0-2---2-2--2--2--------2-|---0--0-0-0-0-0---0-2-2-2-2--2--2--2-----2-|
|-----1------1-1-1-1-1-2---2-2--2--2--------2-|---1--1-1-1-1-1---1-2-2-2-2--2--2--2-----2-|
|-----2------2-2-2-2-2-2---2-2--2--2--------2-|---2--2-2-2-2-2---2-2-2-2-2--2--2--2-----2-|
|-----2------2-2-2-2-2-0---0-0--0--0--------0-|---2--2-2-2-2-2---2-0-0-0-0--0--0--0-----0-|
|-----0------0-0-0-0-0------------------------|---0--0-0-0-0-0---0------------------------|
|
| Gtrs III, IV
| ~~~ ~~~~~~~~~ ~~~
| a H. S S S a S +H. S S S a S
|-13s15------------------------15s13----13s15-|-(15)-----------------------15s13----13s15-|
|------------------------------------15-------|----------------------------------15-------|
|---------------------------------------------|-------------------------------------------|
|---------------------------------------------|-------------------------------------------|
|---------------------------------------------|-------------------------------------------|
|---------------------------------------------|-------------------------------------------|

G C
|3|
S S S S S S E E S S S E E
|--------------------------------------------------|
|------0-0-0---------1----1-1----------------------|
|------0-0-----------0----0-0----------------------|
|--------0-------0---2----2-2--0h2-----------------|
|------------0-2-----3----3-3-----------3----------|
|---3----------------------------------------------|
|
| S E S E S S S E. S E.
|---0--0---0-0---0-0-0-0-------0----0--------------|
|---0--0---0-0---0-0-2-2-------2----2--------------|
|---1--1---1-1---1-1-2-2-------2----2--------------|
|---2--2---2-2---2-2-2-2-------2----2--------------|
|---2--2---2-2---2-2-0-0-------0----0--------------|
|---0--0---0-0---0-0-------------------------------|
|
|~~~~~~
| +H. S S S a S
|-(15)------------------------15p==13--------------|
|--------------------------------------15----------|
|-----------------------------------------13s15----|
|--------------------------------------------------|
|--------------------------------------------------|
|--------------------------------------------------|

D C
S S S S S S S s S S S S S S S S
|----2-----------2-3---2--2-------0--------------------|
|--3----3--3-----3-3---3--3-------1--1-1-----------0-0-|
|--2----2--------2-2---2--2-------0--0-0-----------0-0-|
|--0----0--------0-0---0--0-----2------------0h=2------|
|-------------------------------3----------------------|
|------------------------------------------------------|
|
| E E S E. E E S S S S
|-------------------------------0----0-------0--0--0-0-|
|-------------------------------2----2-------0--2--2-2-|
|--4----4--------4-4------------2----2-------2--2--2-2-|
|--4----4--------4-4------------2----2-------2--2--2-2-|
|--2----2--------2-2------------0----0-------0--0--0-0-|
|------------------------------------------------------|
|
| E S S a E S S a E E a S S e
|------------------------------------------------------|
|------15-15----------15-15-13h15---15-----------------|
|-15---------13s15----------13S15--------13s15s13------|
|-------------------------------------------------15---|
|------------------------------------------------------|
|------------------------------------------------------|

G C G C
S S S S S S E S S S S S S S S E S S S S S S S S S S S S S S
|---------------------------------------------|----------------------------------------------|
|--------0-0-0-----------1---1----------------|------0-0-------(0)---1---1-------------------|
|----------0-0-----0---0-0-0----0--0--------0-|------0-0-----0-----0-0-0----------0-----0----|
|----------0-------0---2--------2--0--------2-|--------------0-----2-0-2----0h=2-------------|
|--------------0h2-----3--------------3-------|----------0h2-------3-------------------------|
|-----3---------------------------------------|---3------------------------------------------|
|
| S S S S S E S E S S S E S E. S S S S S E S S S E S
|-----0--0-0-0-0-0---0-0---0-0--0--0--------0-|--------------------0---0-0--0--0--------0----|
|-----0--0-0-0-0-0---0-2---2-2--2--2--------2-|--------------------2---2-2--0--2--------2----|
|-----1--1-1-1-1-1---1-2---2-2--2--2--------2-|---1----1-1-1-1--1--2---2-2--2--2--------2----|
|-----2--2-2-2-2-2---2-2---2-2--2--2--------2-|---2----2-2-2-2--2--2---2-2--2--2--------2----|
|-----2--2-2-2-2-2---2-0---0-0--0--0--------0-|---2----2-2-2-2--2--0---0-0--0--0--------0----|
|-----0--0-0-0-0-0---0------------------------|---0----0-0-0-0--0----------------------------|
|
| a H. S S S a S +H. S S S a S
|-13s15------------------------15s13s15-13s15-|-(15)-----------------------15s13s15-13s15----|
|---------------------------------------------|----------------------------------------------|
|---------------------------------------------|----------------------------------------------|
|---------------------------------------------|----------------------------------------------|
|---------------------------------------------|----------------------------------------------|
|---------------------------------------------|----------------------------------------------|

G C D5 Dsus4
S S S S S S S S S S S S a S S E E S S S E. E S S S S S S
|---------------------------------------------|----------2-3---------3--------3---------|
|------0---0-------------1-1-1----------------|------3-3-3-3---------3--3-3---3--3-3--3-|
|------0-0-0--------0----0-0------------------|---2--2-2-2-2---------2--2-2---2--2-2--2-|
|-----------------0---2----2----0h=2p=0-------|---0-------------------------------------|
|------------0h2------3------------------3----|-----------------------------------------|
|---3-----------------------------------------|-----------------------------------------|
|
| E S S S E. E. S S S E E S S S E. E S S S S S S
|---0----0-0-0-0------0------0-----0--0--0----|-----------------------------------------|
|---0----0-0-0-0------2------2-----2--2--2----|----------4-5---------5--5-5---5--5-5--5-|
|---1----1-1-1-1------2------2-----2--2--2----|---4--4-4-4-4---------4--4-4---4--4-4--4-|
|---2----2-2-2-2------2------2-----2--2--2----|---4--4-4-4-4---------4--4-4---4--4-4--4-|
|---2----2-2-2-2------0------0-----0--0--0----|---2--2-2-2-2---------2--2-2---2--2-2--2-|
|---0----0-0-0-0------------------------------|-----------------------------------------|
|
| ~~~~ ~~~~~~~~~~~~~~~~~
| +H. a S S S S Q. E Q E. S
|-(15)-------------------------13s15s13-15p13-|-/10-----------(10)-(10)-----(10)-----10-|
|---------------------------------------------|-/10-----------(10)-(10)-----(10)--------|
|---------------------------------------------|-/10-----------(10)-(10)-----(10)--------|
|---------------------------------------------|-----------------------------------------|
|---------------------------------------------|-----------------------------------------|
|---------------------------------------------|-----------------------------------------|







S S S S +S S S S H
|---3--3---3-(3)-3--3-3---3---------------------||
|---3--3-3-3-(3)-3--3-3---3---------------------||
|---2--2-2-2-(2)-2------------------------------||
|-----------------------------------------------||
|-----------------------------------------------||
|-----------------------------------------------||
|
| E S S +S S E S S S S a S S S T T
|-----------------------------------------------||
|----------4-(4)----4-------------4-------------||
|---4----4-4-(4)----4---------2s4---4s2-1-------||
|---4----4-------4--4---------------------2-1h2-||
|---2------------2------------------------------||
|-----------------------------------------------||
|
| +Q. E +H
|-(10)-------------10---(10)\-------------------||
|-----------------------------------------------||
|-----------------------------------------------||
|-----------------------------------------------||
|-----------------------------------------------||
|-----------------------------------------------||

G C D C G C
Gtr I
e E +E S S e E E S S e E E S S S S S S S S S S e E E S S e E E S S
|-----------------------|---------------------------|---------------------|
|-----------------------|---------------------------|---------------------|
|-----------------------|---------------------------|---------------------|
|-------------------0h2-|-0-0-----------------------|-----------------0h2-|
|---------0-2-3-3-------|-------0-2-3-3-3-3-2-2-----|-------0-2-3-3-------|
|-3-3-(3)---------------|-----------------------0-2-|-3-3-----------------|

D C
PM--------|
e E E S S S S S S S S S S
|---------------------------|
|---------------------------|
|-----------------------0-0-|
|-0-0---------------0h2-----|
|-------0-2-3-3-3-3---------|
|---------------------------|

G C D C
PM----------------|
+Q H. e E E S S S S S S S S S S
|------------------------|----------------------------|
|------------------------|----------------------------|
|-(0)--------------------|----------------------------|
|--------------------0h2-|-0-0------------------------|
|----------0h2-3-3-------|-------0-2-3-3-3-3-2-2-0-0--|
|--3--3------------------|----------------------------|
e E E S S e E E S S

G C D C
|-3-|
E E E S S E E S S S E E E a E E S E S S S S S
|-------------------------|-----3p2-----------------|
|-------------------------|---------------1---------|
|-------------------------|---------2-----0-----0-0-|
|---------------0h2p0-(2)-|-0-0---------2---0h2-----|
|-------0-2-3-3--------3--|-----------3-------------|
|-3-3---------------------|-------------------------|

N.C.(G) C D C
E E E S S E E E S S E E E S S S S S S S S E
|---------------------|-------------------------|
|---------------------|-------------------------|
|---------------------|-----------------------0-|
|-----------------0h2-|-0-0---------------0h2---|
|-------0h2-3-3-------|-------0h2-3-3-3-3-------|
|-3-3-----------------|-------------------------|

G C D C
+W e E E S S S S S S S S S S
|----------------------|-----------------------------|
|----------------------|-----------------------------|
|-(0)------------------|-----------------------0-0---|
|------------------0h2-|-0-0-0-------------0h2-------|
|---------0h2-3-3------|-------0-2-3-3-3-3-----------|
|--3--3----------------|-----------------------------|
E E E S S E Q S S

G C D C
Gtr I
+W E E E S S S S S S S S S S
|-----------------------|----------------------------|
|-----------------------|----------------------------|
|-(0)-------------------|------------------------0-0-|
|-------------------0h2-|-0-0---------------0h2------|
|---------0h2-3-3-------|-------0h2-3-3-3-3----------|
|--3--3-----------------|----------------------------|
| E E E S S E E E S S
|
| Gtrs III, IV
| W H Q E S S
|-----------------------|-------------------7s==19---|
|-----------------------|----------------------------|
|-----------------------|----------------------------|
|-----------------------|----------------------------|
|-----------------------|----------------------------|
|-----------------------|----------------------------|

G C D C
+W e E E S S S S S S E E
|-----------------------|-----------------------*|
|-----------------------|-----------------------*|
|-(0)-------------------|-----------------------*|
|-------------------0h2-|-0-0-0-----------------*|
|----------0h2-3-3------|-------0-2-3-3-3-3-2-0-*|
|--3--3-----------------|-----------------------*|
| E E E S S E Q S S
|
| E Q. H W
|--7s17\----------------|-----------------------*|
|-----------------------|-----------------------*|
|-----------------------|-----------------------*|
|-----------------------|-----------------------*|
|-----------------------|-----------------------*|
|-----------------------|-----------------------*|

Tunning: Standard (E A D G B e)
This Version Of The Joker Was Not Available On UG So Im Posting It In

Verse 1
4/4
Gtr I
W e E +E S S e E E S S
|----------|-----------------------|
|----------|-----------------------|
|----------|-----------------------|
|----------|-------------------0h2-|
|----------|---------0-2-3-3-------|
|----------|-3-3-(3)---------------|

D C G C
e E E S S S S S S S S S S e E E S S e E E S S
|---------------------------|----------------------|
|---------------------------|----------------------|
|---------------------------|----------------------|
|-0-0-----------------------|-----------------0h2--|
|-------0-2-3-3-3-3-2-2-----|-------0-2-3-3--------|
|-----------------------0-2-|-3-3------------------|

D C G C
PM--------|
e E E S S S S S S S S S S +Q H.
|---------------------------|------------------------|
|---------------------------|------------------------|
|-----------------------0-0-|-(0)--------------------|
|-0-0---------------0h2-----|--------------------0h2-|
|-------0-2-3-3-3-3---------|----------0h2-3-3-------|
|---------------------------|--3--3------------------|
| e E E S S e E E S S
|
| Gtrs III, IV
| W W
|---------------------------|------------------------|
|---------------------------|------------------------|
|---------------------------|------------------------|
|---------------------------|------------------------|
|---------------------------|------------------------|
|---------------------------|------------------------|

D C
PM------------------|
e E E S S S S S S S S S S
|--------------------------------|
|--------------------------------|
|--------------------------------|
|-0-0----------------------------|
|----------0-2--3--3-3-3-2-2-0-0-|
|--------------------------------|
|
| Q a E S S Q Q
|-----8s21---8s16\---------------|
|--------------------------------|
|--------------------------------|
|--------------------------------|
|--------------------------------|
|--------------------------------|

G C D C
PM------|
E E E S S E E E S S E E E S S S S S S S S S S
|---------------------|---------------------------||
|---------------------|---------------------------||
|---------------------|-----------------------0-0-||
|-----------------0h2-|-0-0---------------0-2-----||
|-------0h2-3-3-------|-------0-2-3-3-3-3---------||
|-3-3-----------------|---------------------------||

Verse 2
+W e E E S S S S S S S S S S e E E S S e E E S S
|-------------------------|---------------------------|---------------------|
|-------------------------|---------------------------|---------------------|
|-(0)---------------------|---------------------------|---------------------|
|---------------------0h2-|-0-0-----------------------|-----------------0h2-|
|-----------0-2-3-3-------|-------0-2-3-3-3-3-2-2-----|-------0-2-3-3-------|
|--3--3-(3)---------------|-----------------------0-2-|-3-3-----------------|
e E +E S S e E E S S


PM--------|
e E E S S S S S S S S S S
|---------------------------|
|---------------------------|
|-----------------------0-0-|
|-0-0---------------0h2-----|
|-------0-2-3-3-3-3---------|
|---------------------------|

PM----------------|
+Q H. e E E S S S S S S S S S S
|------------------------|----------------------------|
|------------------------|----------------------------|
|-(0)--------------------|----------------------------|
|--------------------0h2-|-0-0------------------------|
|----------0h2-3-3-------|-------0-2-3-3-3-3-2-2-0-0--|
|--3--3------------------|----------------------------|
e E E S S e E E S S

G C D C
PM----------------|
E E E S S E E E S S E E E S S S S S S S S S S
|---------------------|---------------------------||
|---------------------|---------------------------||
|---------------------|---------------------------||
|-----------------0h2-|-0-0-----------------------||
|-------0h2-3-3-------|-------0-2-3-3-3-3-2-2-0-0-||
|-3-3-----------------|---------------------------||

Chorus 1
G C
Gtr I
E S S S S S S S S S S S S S S
|-------------------------------------|
|----0--0-------------1---1-----------|
|----0--0-------0-0-0-0-----------0-0-|
|----0----------0-0-2-2-2----0h=2-----|
|----------0h=2-----3---3-------------|
|-3-----------------------------------|
|
| Gtr II
| E S S +E E E S S +S E S
|-------------------------------------|
|-------------------------------------|
|-------------------------------2-----|
|---------------2---------2-(2)-----2-|
|---(2)-2-(2)-------0---0-------------|
|-0-----------------------------------|

G C G C
E. S S S S S E S S +S S S S E S S S S S S E. S S S E
|--------------------------------|----------------------------------|
|----0---------0---1-------1-----|-----0----------------1-----------|
|--------------0---0-------0---0-|---0-----------0--------------0---|
|------------0-------------------|-------------0---2-------0h=2-----|
|-------0h=2-----3---2-(2)---0---|--------0h=2-----3----------------|
|-3------------------------------|-3--------------------------------|
|
| E. S +S S S S E S S +S S S S E S S +S S S S E S S +S E S
|--------------------------------|----------------------------------|
|----------------------------2-2-|----------------------------------|
|------------1-1-----2-(2)---2-2-|--------------------2-2-(2)-2---2-|
|----------2-2-2-----2-(2)-2-----|-----------2---2----2-2-(2)-2---2-|
|----2-(2)-------0-0-------------|---2-2-(2)---2---0--0-0-(0)-------|
|-0------------------------------|-0--------------------------------|

D C G C
E. S S E S E E S S E E. S S S S S E S S S S S S
|--------2-2--------------|--------------------------------------|
|-3------3-3-x------------|----0-------------1-1-----------------|
|-2----2-2-2-x-----0----0-|------------0-----0-0--------0--------|
|-0--------------2-0h2----|----------0------------0h=2-----------|
|--------------3-3--------|------0h2-----3-----------------------|
|-------------------------|-3--------------------------------3---|

|--3---|
| E E S E S E E S E. E. S E S S S S S S +S S +S S S
|--------------------0----|------0-----0-------------------------|
|--------------2-2-0-2----|------0-------------------------------|
|----4---4-4-4-2-2-2-2----|------1---1---------------2-(2)-2---2-|
|----4---4-4-4-2-2-2-2----|----2-2---2-----2---2-(2)-2-(2)-2---2-|
|-2------2-2---0----------|----2---------0---0-------------------|
|-------------------------|-0------------------------------------|












G C
E. S S S S S E S S S S E
|---------------------------------|
|----0-------0-----1-1------------|
|------------------0-0-------0----|
|----------0---(2)-----0h==2------|
|------0h2------3-----------------|
|-3-------------------------------|


| E. S S E S E S S S a S S S
|---------------------------------|
|---------------------------------|
|----1---1-----------2---2s4-2-2--|
|----2---2---2-----2-2-------2----|
|---------------0------0-----0----|
|-0----0--------------------------|

G C D C
|--3--|
E S S S S S S S S E S S S E E S S E S S E S S S S S S
|-----------------------------------|-------2-------------------------|
|---0-0-------0---------------------|-3-3-3-3---3-3-------------------|
|---0-0-----------0-----------------|-2-2-2-2---0-2---0-0-------0-0---|
|-----------0-------2---0h2---0-2---|-0-0-0-----------2-2-0h2---------|
|-------0h2-----3-------------------|---------------3-----------------|
|-3---------------------------------|---------------------------------|
|
| |-3-| |-3-|
| E S S S S S S S S S S S E S E E S E S E E E S E S
|-----------------------------------|---------------------------------|
|-----------------------------------|-----------------2---0---2-------|
|---1-1---1-------2-2-------2-----2-|-4-4---4-4---4---2---2-----2---2-|
|---2-2---2---2-----2-2-2---2-------|-4-4---4-4---4---2---2-----2---2-|
|-------2---2---0-------0-----------|-2-2---2-2---2-0-----------------|
|-0---------------------------------|---------------------------------|

G C
S S S S S S S S S S S S S S S S
|-------------------------------------|
|----0-0-0-------------1-1------------|
|------0---------0-------------0-0----|
|------0-------0-0-2-2-----0h2--------|
|----------0h2-----3-3----------------|
|-3-----------------------------------|
|
| E. S S S S S E S S S E S
|-0------0-0-0-0-0-0---0-0-0-0---0----|
|-0------0-0-0-0-0-2---2-2-2-2---2----|
|-1------1-1-1-1-1-2---2-2-2-2---2----|
|-2------2-2-2-2-2-2---2-2-2-2---2----|
|-2------2-2-2-2-2-0---0-0-0-0---0----|
|-0------0-0-0-0-0--------------------|

G C
S S S S S S S S E S S +S S S S
|-----------------------------------|
|---0---0-----0-0-----1-------1---0-|
|-------------0-------0-------0---0-|
|---------------------------------0-|
|---------0h2-----3-----2-(2)---0---|
|-3---3-----------------------------|
|
| S S S S S E S S S S S S S S S
|-0-0-0-0-0-0---0-0-0-0-0--0--0-0-0-|
|-0-0-0-0-0-0---0-2-2-2-2--2--2-2-2-|
|-1-1-1-1-1-1---1-2-2-2-2--2--2-2-2-|
|-2-2-2-2-2-2---2-2-2-2-2--2--2-2-2-|
|-2-2-2-2-2-2---2-0-0-0-0--0--0-0-0-|
|-0-0-0-0-0-0---0-------------------|

G C D Dsus4D C
|3|
S S S S S S E E S S S E E S S S S S S S s S S S S S S S S
|-----------------------------------|---2-----2-3--2-2---0-------------|
|---0-0-0---------1----1-1----------|-3---3-3-3-3--3-3---1-1-1-----0-0-|
|---0-0-----------0----0-0----------|-2---2---2-2--2-2---0-0-0-----0-0-|
|-----0-------0---2----2-2-0h2------|-0---0---0-0--0-0-2-------0h2-----|
|---------0-2-----3----3-3--------3-|------------------3---------------|
|-3---------------------------------|----------------------------------|
|
| S E S E S S S E. S E. E E S E. E E S S S S
|-0-0---0-0---0-0-0-0------0---0----|------------------0---0---0-0-0-0-|
|-0-0---0-0---0-0-2-2------2---2----|------------------2---2---0-2-2-2-|
|-1-1---1-1---1-1-2-2------2---2----|-4---4---4-4------2---2---2-2-2-2-|
|-2-2---2-2---2-2-2-2------2---2----|-4---4---4-4------2---2---2-2-2-2-|
|-2-2---2-2---2-2-0-0------0---0----|-2---2---2-2------0---0---0-0-0-0-|
|-0-0---0-0---0-0-------------------|----------------------------------|

G C G C
S S S S S S E S S S S S S S S E S S S S S S S S S S S S S S
|---------------------------------|-----------------------------------|
|---0-0-0-----------1---1---------|----0-0-------(0)---1---1----------|
|-----0-0-----0---0-0-0---0-0---0-|----0-0-----0-----0-0-0-------0-0--|
|-----0-------0---2-------2-0---2-|------------0-----2-0-2---0h2------|
|---------0h2-----3-----------3---|--------0h2-------3----------------|
|-3-------------------------------|-3---------------------------------|
|
| S S S S S E S E S S S E S E. S S S S S E S S S E S
|-0-0-0-0-0-0---0-0---0-0-0-0---0-|------------------0---0-0-0-0---0--|
|-0-0-0-0-0-0---0-2---2-2-2-2---2-|------------------2---2-2-0-2---2--|
|-1-1-1-1-1-1---1-2---2-2-2-2---2-|-1----1-1-1-1--1--2---2-2-2-2---2--|
|-2-2-2-2-2-2---2-2---2-2-2-2---2-|-2----2-2-2-2--2--2---2-2-2-2---2--|
|-2-2-2-2-2-2---2-0---0-0-0-0---0-|-2----2-2-2-2--2--0---0-0-0-0---0--|
|-0-0-0-0-0-0---0-----------------|-0----0-0-0-0--0-------------------|

G C D Dsus4
S S S S S S S S S S S S a S S E E S S S E. E S S S S S S
|-----------------------------------|-------2-3--3-----3-------|
|---0---0-------------1-1-1---------|---3-3-3-3--3-3-3-3-3-3-3-|
|---0-0-0--------0----0-0-----------|-2-2-2-2-2--2-2-2-2-2-2-2-|
|--------------0---2----2---0h2p0---|-0------------------------|
|---------0h2------3--------------3-|--------------------------|
|-3---------------------------------|--------------------------|
|
| E S S S E. E. S S S E E S S S E. E S S S S S S
|-0---0-0-0-0------0------0---0-0-0-|--------------------------|
|-0---0-0-0-0------2------2---2-2-2-|-------4-5--5-5-5-5-5-5-5-|
|-1---1-1-1-1------2------2---2-2-2-|-4-4-4-4-4--4-4-4-4-4-4-4-|
|-2---2-2-2-2------2------2---2-2-2-|-4-4-4-4-4--4-4-4-4-4-4-4-|
|-2---2-2-2-2------0------0---0-0-0-|-2-2-2-2-2--2-2-2-2-2-2-2-|
|-0---0-0-0-0-----------------------|--------------------------|

S S S S +S S S S H
|-3-3---3-(3)-3-3-3---3--------------||
|-3-3-3-3-(3)-3-3-3---3--------------||
|-2-2-2-2-(2)-2----------------------||
|------------------------------------||
|------------------------------------||
|------------------------------------||
|
| S S S S +S S S S a E S S S S S S
|-------------------0----------------||
|-------4-(4)-4-----1s3-3-3----------||
|---4---4-(4)-4-4-4---------2-1------||
|---4-4-4-(4)-4-4-4-------------2-1--||
|-2-------------2--------------------||
|------------------------------------||

Guitar Solo 1
G C D C
Gtr I
E E +E S S E E E S S E E E S S S S S S S S S S
|---------------------------------|-----------------------------------|
|---------------------------------|-----------------------------------|
|---------------------------------|-----------------------------------|
|-----------------------------0h2-|---0--0----------------------------|
|----------------0-2---3--3-------|----------0-2--3--3-3--3--2-2------|
|--3-------3-(3)------------------|-------------------------------0-2-|

| Gtrs III, IV
| ~~~~~~~~~~~~~~~~~~~~~~~~~~~~~~~~~~
| S Q.. +H +Q. E S E S E E
|-13s=15-------------(15)---------|-(15)---------15s13----------------|
|---------------------------------|----------------------15s13--------|
|---------------------------------|------------------------------15---|
|---------------------------------|------------------------------15---|
|---------------------------------|-----------------------------------|
|---------------------------------|-----------------------------------|

| Gtr II
>
| W +W
|---------------------------------|-----------------------------------|
|---------------------------------|-----------------------------------|
|---------------------------------|-----------------------------------|
|---------------------------------|-----------------------------------|
|---------------------------------|-----------------------------------|
|-(0)-----------------------------|--(0)------------------------------|






G C
E E E S S E E E S S
|---------------------------------------------|
|---------------------------------------------|
|---------------------------------------------|
|-----------------------------------------0h2-|
|------------------------0-2---3--3-----------|
|-----3--3------------------------------------|
~~~~
| a E S S +S E. Q Q
|----------------------------(15)---(15)\-----|
|--------------------15------(15)---(15)\-----|
|-15s13-----/15-(15)--------------------------|
|-------15/-----------------------------------|
|---------------------------------------------|
|---------------------------------------------|
|
| W
|---------------------------------------------|
|---------------------------------------------|
|---------------------------------------------|
|---------------------------------------------|
|---------------------------------------------|
|---------------------------------------------|

D C
PM------------|
E E E S S S S S S S S S S
|-------------------------------------------------|
|-------------------------------------------------|
|--------------------------------------------0--0-|
|--0-----0-----------------------------0h=2-------|
|--------------------0--2--3--3--3--3-------------|
|-------------------------------------------------|
|
| S S S S S S S S S S S S S S S S
|-------------------------------------------------|
|-------------------------------------------------|
|-------------------------------------------------|
|-15s13----15s13----15s13----15s13----15-15-15-15-|
|-------15-------15-------15-------15-------------|
|-------------------------------------------------|

G C D C
E E E S S E E E S S E E E S S S S S S S S S S
|-----------------------------------|------------------------------------------------|
|-----------------------------------|------------------------------------------------|
|-----------------------------------|------------------------------------------------|
|------------------------------0h=2-|-----0--0---------------------------------------|
|--------------0h=2---3---3---------|--------------0--2--3-3--3-3-----2-2------------|
|---3--3----------------------------|--------------------------------------0-----2---|
|
| ~~ ~~
| E Q a S S +E Q S S a E E E S S E E a E S a S
|-----------------------------------|------------------------------------------------|
|-----15----------------------------|-------15-15----15s17---15----------------------|
|-/15------15s13--------------------|-13s15-------15-15s17--------14s13------13s15---|
|----------------15-(15)-15---15-15-|-------------------------------------15---------|
|-----------------------------------|------------------------------------------------|
|-----------------------------------|------------------------------------------------|

G C
E E E S S E E E S S
|----------------------------------------|
|----------------------------------------|
|----------------------------------------|
|-----------------------------------0h=2-|
|--------------0-2---3---3---------------|
|---3---3--------------------------------|
|
| +E E Q +E S S S E S
|---------(15)-----(15)-15s13s15---------|
|------15------------------------15------|
|-(15)--------------------------------14s|
|----------------------------------------|
|----------------------------------------|
|----------------------------------------|

D C
PM------------|
E E E S S S S S S S S S S
|-------------------------------------------||
|-------------------------------------------||
|--------------------------------------0--0-||
|--0--0--------------------------0h=2-------||
|--------------0--2--3--3--3--3-------------||
|-------------------------------------------||
|
| E E S S S S S S S S S S S S
|-------------------------------------------||
|-------------------------------------------||
|-13----------------------------------------||
|----15-15s13----15s13----15s13----15s13----||
|-------------15-------15-------15-------15-||
|-------------------------------------------||

Verse 3
G C
e E +E S S e E E S S
|-----------------------------|
|-----------------------------|
|-----------------------------|
|-------------------------0h2-|
|------------0-2---3--3-------|
|--3--3--(3)------------------|
|
| E Q. +H
|-----------------------------|
|-----------------------------|
|-----------------------------|
|-13s15----------(15)---------|
|-----------------------------|
|-----------------------------|

D C G C
e E E S S S S S S S S S S e E E S S e E E S S
|---------------------------|---------------------|
|---------------------------|---------------------|
|---------------------------|---------------------|
|-0-0-----------------------|-----------------0h2-|
|-------0-2-3-3-3-3-2-2-----|-------0-2-3-3-------|
|-----------------------0-2-|-3-3-----------------|
|
| W W
|---------------------------|---------------------|
|---------------------------|---------------------|
|---------------------------|---------------------|
|---------------------------|---------------------|
|---------------------------|---------------------|
|---------------------------|---------------------|

D C G C
PM--------|
e E E S S S S S S S S S S +Q H.
|---------------------------|------------------------|
|---------------------------|------------------------|
|-----------------------0-0-|-(0)--------------------|
|-0-0---------------0h2-----|--------------------0h2-|
|-------0-2-3-3-3-3---------|----------0h2-3-3-------|
|---------------------------|--3--3------------------|
| e E E S S e E E S S
|
| W W
|---------------------------|------------------------|
|---------------------------|------------------------|
|---------------------------|------------------------|
|---------------------------|------------------------|
|---------------------------|------------------------|
|---------------------------|------------------------|

D C
PM------------------|
e E E S S S S S S S S S S
|------------------------------|
|------------------------------|
|------------------------------|
|-0-0--------------------------|
|-------0-2-3--3-3-3-2-2--0-0--|
|------------------------------|
|
| H S E S E E
|-----------8s20-----8s==17s===|
|------------------------------|
|------------------------------|
|------------------------------|
|------------------------------|
|------------------------------|













G
PM------|
E E E S S E E E S S E E E S S S S S S S S S S
|---------------------|---------------------------||
|---------------------|---------------------------||
|---------------------|-----------------------0-0-||
|-----------------0h2-|-0-0---------------0-2-----||
|-------0h2-3-3-------|-------0-2-3-3-3-3---------||
|-3-3-----------------|---------------------------||






| E E Q H W
|-7-------------------|---------------------------||
|---------------------|---------------------------||
|---------------------|---------------------------||
|---------------------|---------------------------||
|---------------------|---------------------------||
|---------------------|---------------------------||

Chorus 2
G C
Gtr I
E E S S E E S S S S S S
|---------------------------------|
|----------0-0-0------------------|
|----(0)---0-0-0---0-0-0-0-0--0-0-|
|----(0)---0-0-0---2-2-2-2-2--2-2-|
|------------------3-3-3-3-3--3-3-|
|-3-------------------------------|
|
| Gtr II
| E. S S E S E S S S E.
|-0------0-0-0---0-0-0-0-0-0------|
|-0------0-0-0---0-2-2-2-2-2------|
|-1------1-1-1---1-2-2-2-2-2------|
|-2------2-2-2---2-2-2-2-2-2------|
|-2------2-2-2---2-0-0-0-0-0------|
|-0------0-0-0---0----------------|

G C G C
S S S S E S S E S S E S S S E S S S E E E E E
|-----------------------0-------|--------------------0-------|
|-0-0-0-0-0---0-0-------1-------|-0-0-----0-0--0-----1-------|
|-0-0-0-0-0---0-0-0-----0---0-0-|-0-0---0-0-0--0-0---0----0--|
|-0-0-0-0-0---0-0-2-2-2-2---2---|-0-----0-0-0--0-2-2-2----2--|
|-x-------x-------3-3---3---3---|-x-------x-x----3-3------3--|
|-3-------3---------------------|-3-------3-3----------------|
|
| E S S S S S S E S S S S E E S S S E. Q S E.
|-0---0-0-0-0-0-0-0-0-0-0-------|-0---0-0-0-0----0---0-0-----|
|-0---0-0-0-0-0-0-2-2-2-2-------|-0---0-0-0-0----2---2-2-----|
|-1---1-1-1-1-1-1-2-2-2-2-4-2---|-1---1-1-1-1----2---2-2-----|
|-2---2-2-2-2-2-2-2-2-2-2---2---|-2---2-2-2-2----2---2-2-----|
|-2---2-2-2-2-2-2-0-0-0-0---0---|-2---2-2-2-2----0---0-0-----|
|-0---0-0-0-0-0-0---------------|-0---0-0-0-0----------------|

D C G C
E S S S S E E S S S S E E S S S S S S S S S S S S S S
|---2-2----------------------|-----------------------0---------|
|-3-3-3-3-3-3---1-----1-1--1-|-------0-------0---1-------------|
|-2-2-2-2-2-2---0-----0-0--0-|---(0)---------------0-------0-0-|
|-0-----0-0-0---2-2-2-2-2--2-|-------------0-----------0h2-----|
|---------------3-3-3-3-3--3-|---------0h2-----3---------------|
|----------------------------|-3-------------------------------|
|
| E E S E S E E S E. E S S S S S S E S S S S E
|---------------0-0---0-0----|-0--0--0-0-0-0-0-0---0-0-0-------|
|---------------2-2---0-2----|-0--0--0-0-0-0-0-2---2-2-2-------|
|-4-4---4-4---4-2-2---2-2----|-1--1--1-1-1-1-1-2---2-2-2-4-2---|
|-4-4---4-4---4-2-2---2-2----|-2--2--2-2-2-2-2-2---2-2-2---2---|
|-2-2---2-2---2-0-0---0-0----|-2--2--2-2-2-2-2-0---0-0-0---0---|
|----------------------------|-0--0--0-0-0-0-0-----------------|

G C
E S S S S S S E S S S S S S
|------------------------------|
|----0-0-------0---1-1---------|
|----0-------------0-0-----0---|
|------------0---------0h2-----|
|--------0h2-----3-------------|
|-3--------------------------3-|
|
| E. S S S S S E S S S S S S
|-0----0-0-0-0-0-0-0-0-0---0-0-|
|-0----0-0-0-0-0-2-2-2-2-3-2-2-|
|-1----1-1-1-1-1-2-2-2-2-4-2-2-|
|-2----2-2-2-2-2-2-2-2-2-2-2-2-|
|-2----2-2-2-2-2-0-0-0-0-0-0-0-|
|-0----0-0-0-0-0---------------|

G C
S S S S S S S S S S S S s S S S
|--------------------------0-------0-|
|---0-----0--------0-----------------|
|--------------------------------0---|
|----------------0---2-2-----0-2-----|
|-----------0-2------3---3-----------|
|-3---(3)----------------------------|
|
| Q S E. E S S S S E
|-----------0-0------0---0-0-0-0-0---|
|-----------0-0------2---2-2-0-0-2---|
|-----------1-1------2---2-2-2-2-2---|
|-2---------2-2------2---2-2-2-2-2---|
|-2---------2-2------0---0-0-0-0-0---|
|-0---------0-0----------------------|

D C G C
E S S S S S S E S S S S S S E S S S S S S E S S S S s S
|-------2-2--------------------|----------------------0-----------|
|-3-----3-3--3-------1---------|--------0-------0-----------------|
|-2-2-2-2-2--2-----0-------0-0-|----(0)---------0---0--------0-0--|
|-0-0-0--------0-------0h2-----|----(0)-------0-----2---0-2-------|
|----------------3-------------|----------0-2-----3---------------|
|------------------------------|-3--------------------------------|
|
| E S S S E. E E S S E E. S S E S E S S S E.
|----------------0-0---0-0-0---|-0------0-0-0---0-0-0-0-0-0-------|
|---------4------2-2---0-0-2---|-0------0-0-0---0-2-2-2-2-2-------|
|-4-4-4-4-4------2-2---2-2-2---|-1------1-1-1---1-2-2-2-2-2-------|
|-4-4-4-4-4------2-2---2-2-2---|-2------2-2-2---2-2-2-2-2-2-------|
|-2-2-2-2-2------0-0---0-0-0---|-2------2-2-2---2-0-0-0-0-0-------|
|------------------------------|-0------0-0-0---0-----------------|

G C G C
E S S S S S S E S S S S S S S S S S S S E E S S S S E
|-------------------0---------|--------------------0--------|
|-----0-----------1-----------|---0---0----------1----------|
|-----------------0-------0-0-|---0---0----------0---0------|
|---0-------0-0-2-2---0h2-----|--------------0-------2-2--2-|
|-------0h2-----3-------------|---------0h2----3-------3--3-|
|-3---------------------------|-3---3-----------------------|
|
| E S S S S S S E S S S S E E S S S E. Q S E.
|-0-0-0-0-0-0-0-0-0-0-0-------|-0---0-0-0-0----0-----0-0----|
|-0-0-0-0-0-0-0-2-2-2-2-------|-0---0-0-0-0----2-----2-2----|
|-1-1-1-1-1-1-1-2-2-2-2-4-2---|-1---1-1-1-1----2-----2-2----|
|-2-2-2-2-2-2-2-2-2-2-2---2---|-2---2-2-2-2----2-----2-2----|
|-2-2-2-2-2-2-2-0-0-0-0---0---|-2---2-2-2-2----0-----0-0----|
|-0-0-0-0-0-0-0---------------|-0---0-0-0-0-----------------|

D C
E S S E S S E S S S S S S
|-2-----2-----------------------|
|-3-3-3-3---3-3---3-1-----------|
|-2-2-2-2---2-2-0-0-0------0-0--|
|-0-0-0-0---0-0-2-----0h2-------|
|---------------3---------------|
|-------------------------------|
|
| E E S E S E E S E.
|---------------0-0---0-0-------|
|---------------2-2---0-2-------|
|-4-4---4-4---4-2-2---2-2-------|
|-4-4---4-4---4-2-2---2-2-------|
|-2-2---2-2---2-0-0---0-0-------|
|-------------------------------|













G D G C
E S S S S S S E S S S S S S E S S S S E E S S S S E
|-------------------0---------|------------------------------|
|-----0-------0---1-----------|----0-0-------------1---------|
|---0-0-------0---0---0---0-0-|----0-------------0-------0---|
|---0-------0---------0h2-----|------------0---------0h2-----|
|-------0h2-----3-------------|--------0h2-----3-------------|
|-3---------------------------|-3----------------------------|
|
| E S S S S S S E S S S S E E. S S S S S E S S S S S S
|-0-0-0-0-0-0-0-0-0-0-0-------|-0----0-0-0-0-0-0-0-0-0---0-0-|
|-0-0-0-0-0-0-0-2-2-2-2-------|-0----0-0-0-0-0-2-2-2-2-3-2-2-|
|-1-1-1-1-1-1-1-2-2-2-2-4-2---|-1----1-1-1-1-1-2-2-2-2-4-2-2-|
|-2-2-2-2-2-2-2-2-2-2-2---2---|-2----2-2-2-2-2-2-2-2-2-2-2-2-|
|-2-2-2-2-2-2-2-0-0-0-0---0---|-2----2-2-2-2-2-0-0-0-0-0-0-0-|
|-0-0-0-0-0-0-0---------------|-0----0-0-0-0-0---------------|

G C D C
|--3--|
S S S S S S S S S S S S S S S E E S S S S S S S S S S S S S S
|------------------------------------|-2-2-2-2-2----------------------||
|---0---0--------0---1---1-----------|-3-3-3-3-3--------1---1---------||
|---0-0-0------------0-0-------------|-2-2-2-2-2--------0-0-------0-0-||
|-----0--------0-----------0h2p==0---|-0-0-0-0-0----------2---0h2-----||
|---------0h2------3---------------3-|------------0h2-3---------------||
|-3----------------------------------|--------------------------------||



| Q S E. E S S S S E E S S S E. E E S S E
|---------0-0------0---0-0-0---0---0-|----------------0---0---0-0-0---||
|---------0-0------2---2-2-0---0---2-|---------4------2---2---0-0-2---||
|---------1-1------2---2-2-2---2---2-|-4-4-4-4-4------2---2---2-2-2---||
|-2-------2-2------2---2-2-2---2---2-|-4-4-4-4-4------2---2---2-2-2---||
|-2-------2-2------0---0-0-0---0---0-|-2-2-2-2-2------0---0---0-0-0---||
|-0-------0-0------------------------|--------------------------------||

Guitar Solo 2
G C G C
Gtr I
S S S S S S S S S S S S S S S S S S S S S S S S E S S +S S S S
|---------------------------------------------|-------------------------------------------|
|--------0-0-0-------------1-1----------------|------0---0-----0-0-----1-------1--------0-|
|----------0---------0----------------0-----0-|----------------0-------0-------0--------0-|
|----------0-------0-0-2-2------0h=2----------|-----------------------------------------0-|
|--------------0h2-----3-3--------------------|------------0h2-----3-----2-(2)----0-------|
|-----3---------------------------------------|---3----3----------------------------------|
|
| Gtr II
| E. S S S S S E S S S E S S S S S S E S S S S S S S S S
|-----0------0-0-0-0-0-0---0-0--0--0--------0-|---0--0-0-0-0-0---0-0-0-0-0--0--0--0-----0-|
|-----0------0-0-0-0-0-2---2-2--2--2--------2-|---0--0-0-0-0-0---0-2-2-2-2--2--2--2-----2-|
|-----1------1-1-1-1-1-2---2-2--2--2--------2-|---1--1-1-1-1-1---1-2-2-2-2--2--2--2-----2-|
|-----2------2-2-2-2-2-2---2-2--2--2--------2-|---2--2-2-2-2-2---2-2-2-2-2--2--2--2-----2-|
|-----2------2-2-2-2-2-0---0-0--0--0--------0-|---2--2-2-2-2-2---2-0-0-0-0--0--0--0-----0-|
|-----0------0-0-0-0-0------------------------|---0--0-0-0-0-0---0------------------------|
|
| Gtrs III, IV
| ~~~ ~~~~~~~~~ ~~~
| a H. S S S a S +H. S S S a S
|-13s15------------------------15s13----13s15-|-(15)-----------------------15s13----13s15-|
|------------------------------------15-------|----------------------------------15-------|
|---------------------------------------------|-------------------------------------------|
|---------------------------------------------|-------------------------------------------|
|---------------------------------------------|-------------------------------------------|
|---------------------------------------------|-------------------------------------------|

G C
|3|
S S S S S S E E S S S E E
|--------------------------------------------------|
|------0-0-0---------1----1-1----------------------|
|------0-0-----------0----0-0----------------------|
|--------0-------0---2----2-2--0h2-----------------|
|------------0-2-----3----3-3-----------3----------|
|---3----------------------------------------------|
|
| S E S E S S S E. S E.
|---0--0---0-0---0-0-0-0-------0----0--------------|
|---0--0---0-0---0-0-2-2-------2----2--------------|
|---1--1---1-1---1-1-2-2-------2----2--------------|
|---2--2---2-2---2-2-2-2-------2----2--------------|
|---2--2---2-2---2-2-0-0-------0----0--------------|
|---0--0---0-0---0-0-------------------------------|
|
|~~~~~~
| +H. S S S a S
|-(15)------------------------15p==13--------------|
|--------------------------------------15----------|
|-----------------------------------------13s15----|
|--------------------------------------------------|
|--------------------------------------------------|
|--------------------------------------------------|

D C
S S S S S S S s S S S S S S S S
|----2-----------2-3---2--2-------0--------------------|
|--3----3--3-----3-3---3--3-------1--1-1-----------0-0-|
|--2----2--------2-2---2--2-------0--0-0-----------0-0-|
|--0----0--------0-0---0--0-----2------------0h=2------|
|-------------------------------3----------------------|
|------------------------------------------------------|
|
| E E S E. E E S S S S
|-------------------------------0----0-------0--0--0-0-|
|-------------------------------2----2-------0--2--2-2-|
|--4----4--------4-4------------2----2-------2--2--2-2-|
|--4----4--------4-4------------2----2-------2--2--2-2-|
|--2----2--------2-2------------0----0-------0--0--0-0-|
|------------------------------------------------------|
|
| E S S a E S S a E E a S S e
|------------------------------------------------------|
|------15-15----------15-15-13h15---15-----------------|
|-15---------13s15----------13S15--------13s15s13------|
|-------------------------------------------------15---|
|------------------------------------------------------|
|------------------------------------------------------|

G C G C
S S S S S S E S S S S S S S S E S S S S S S S S S S S S S S
|---------------------------------------------|----------------------------------------------|
|--------0-0-0-----------1---1----------------|------0-0-------(0)---1---1-------------------|
|----------0-0-----0---0-0-0----0--0--------0-|------0-0-----0-----0-0-0----------0-----0----|
|----------0-------0---2--------2--0--------2-|--------------0-----2-0-2----0h=2-------------|
|--------------0h2-----3--------------3-------|----------0h2-------3-------------------------|
|-----3---------------------------------------|---3------------------------------------------|
|
| S S S S S E S E S S S E S E. S S S S S E S S S E S
|-----0--0-0-0-0-0---0-0---0-0--0--0--------0-|--------------------0---0-0--0--0--------0----|
|-----0--0-0-0-0-0---0-2---2-2--2--2--------2-|--------------------2---2-2--0--2--------2----|
|-----1--1-1-1-1-1---1-2---2-2--2--2--------2-|---1----1-1-1-1--1--2---2-2--2--2--------2----|
|-----2--2-2-2-2-2---2-2---2-2--2--2--------2-|---2----2-2-2-2--2--2---2-2--2--2--------2----|
|-----2--2-2-2-2-2---2-0---0-0--0--0--------0-|---2----2-2-2-2--2--0---0-0--0--0--------0----|
|-----0--0-0-0-0-0---0------------------------|---0----0-0-0-0--0----------------------------|
|
| a H. S S S a S +H. S S S a S
|-13s15------------------------15s13s15-13s15-|-(15)-----------------------15s13s15-13s15----|
|---------------------------------------------|----------------------------------------------|
|---------------------------------------------|----------------------------------------------|
|---------------------------------------------|----------------------------------------------|
|---------------------------------------------|----------------------------------------------|
|---------------------------------------------|----------------------------------------------|

G C D5 Dsus4
S S S S S S S S S S S S a S S E E S S S E. E S S S S S S
|---------------------------------------------|----------2-3---------3--------3---------|
|------0---0-------------1-1-1----------------|------3-3-3-3---------3--3-3---3--3-3--3-|
|------0-0-0--------0----0-0------------------|---2--2-2-2-2---------2--2-2---2--2-2--2-|
|-----------------0---2----2----0h=2p=0-------|---0-------------------------------------|
|------------0h2------3------------------3----|-----------------------------------------|
|---3-----------------------------------------|-----------------------------------------|
|
| E S S S E. E. S S S E E S S S E. E S S S S S S
|---0----0-0-0-0------0------0-----0--0--0----|-----------------------------------------|
|---0----0-0-0-0------2------2-----2--2--2----|----------4-5---------5--5-5---5--5-5--5-|
|---1----1-1-1-1------2------2-----2--2--2----|---4--4-4-4-4---------4--4-4---4--4-4--4-|
|---2----2-2-2-2------2------2-----2--2--2----|---4--4-4-4-4---------4--4-4---4--4-4--4-|
|---2----2-2-2-2------0------0-----0--0--0----|---2--2-2-2-2---------2--2-2---2--2-2--2-|
|---0----0-0-0-0------------------------------|-----------------------------------------|
|
| ~~~~ ~~~~~~~~~~~~~~~~~
| +H. a S S S S Q. E Q E. S
|-(15)-------------------------13s15s13-15p13-|-/10-----------(10)-(10)-----(10)-----10-|
|---------------------------------------------|-/10-----------(10)-(10)-----(10)--------|
|---------------------------------------------|-/10-----------(10)-(10)-----(10)--------|
|---------------------------------------------|-----------------------------------------|
|---------------------------------------------|-----------------------------------------|
|---------------------------------------------|-----------------------------------------|







S S S S +S S S S H
|---3--3---3-(3)-3--3-3---3---------------------||
|---3--3-3-3-(3)-3--3-3---3---------------------||
|---2--2-2-2-(2)-2------------------------------||
|-----------------------------------------------||
|-----------------------------------------------||
|-----------------------------------------------||
|
| E S S +S S E S S S S a S S S T T
|-----------------------------------------------||
|----------4-(4)----4-------------4-------------||
|---4----4-4-(4)----4---------2s4---4s2-1-------||
|---4----4-------4--4---------------------2-1h2-||
|---2------------2------------------------------||
|-----------------------------------------------||
|
| +Q. E +H
|-(10)-------------10---(10)\-------------------||
|-----------------------------------------------||
|-----------------------------------------------||
|-----------------------------------------------||
|-----------------------------------------------||
|-----------------------------------------------||

G C D C G C
Gtr I
e E +E S S e E E S S e E E S S S S S S S S S S e E E S S e E E S S
|-----------------------|---------------------------|---------------------|
|-----------------------|---------------------------|---------------------|
|-----------------------|---------------------------|---------------------|
|-------------------0h2-|-0-0-----------------------|-----------------0h2-|
|---------0-2-3-3-------|-------0-2-3-3-3-3-2-2-----|-------0-2-3-3-------|
|-3-3-(3)---------------|-----------------------0-2-|-3-3-----------------|

D C
PM--------|
e E E S S S S S S S S S S
|---------------------------|
|---------------------------|
|-----------------------0-0-|
|-0-0---------------0h2-----|
|-------0-2-3-3-3-3---------|
|---------------------------|

G C D C
PM----------------|
+Q H. e E E S S S S S S S S S S
|------------------------|----------------------------|
|------------------------|----------------------------|
|-(0)--------------------|----------------------------|
|--------------------0h2-|-0-0------------------------|
|----------0h2-3-3-------|-------0-2-3-3-3-3-2-2-0-0--|
|--3--3------------------|----------------------------|
e E E S S e E E S S

G C D C
|-3-|
E E E S S E E S S S E E E a E E S E S S S S S
|-------------------------|-----3p2-----------------|
|-------------------------|---------------1---------|
|-------------------------|---------2-----0-----0-0-|
|---------------0h2p0-(2)-|-0-0---------2---0h2-----|
|-------0-2-3-3--------3--|-----------3-------------|
|-3-3---------------------|-------------------------|

N.C.(G) C D C
E E E S S E E E S S E E E S S S S S S S S E
|---------------------|-------------------------|
|---------------------|-------------------------|
|---------------------|-----------------------0-|
|-----------------0h2-|-0-0---------------0h2---|
|-------0h2-3-3-------|-------0h2-3-3-3-3-------|
|-3-3-----------------|-------------------------|

G C D C
+W e E E S S S S S S S S S S
|----------------------|-----------------------------|
|----------------------|-----------------------------|
|-(0)------------------|-----------------------0-0---|
|------------------0h2-|-0-0-0-------------0h2-------|
|---------0h2-3-3------|-------0-2-3-3-3-3-----------|
|--3--3----------------|-----------------------------|
E E E S S E Q S S

G C D C
Gtr I
+W E E E S S S S S S S S S S
|-----------------------|----------------------------|
|-----------------------|----------------------------|
|-(0)-------------------|------------------------0-0-|
|-------------------0h2-|-0-0---------------0h2------|
|---------0h2-3-3-------|-------0h2-3-3-3-3----------|
|--3--3-----------------|----------------------------|
| E E E S S E E E S S
|
| Gtrs III, IV
| W H Q E S S
|-----------------------|-------------------7s==19---|
|-----------------------|----------------------------|
|-----------------------|----------------------------|
|-----------------------|----------------------------|
|-----------------------|----------------------------|
|-----------------------|----------------------------|

G C D C
+W e E E S S S S S S E E
|-----------------------|-----------------------*|
|-----------------------|-----------------------*|
|-(0)-------------------|-----------------------*|
|-------------------0h2-|-0-0-0-----------------*|
|----------0h2-3-3------|-------0-2-3-3-3-3-2-0-*|
|--3--3-----------------|-----------------------*|
| E E E S S E Q S S
|
| E Q. H W
|--7s17\----------------|-----------------------*|
|-----------------------|-----------------------*|
|-----------------------|-----------------------*|
|-----------------------|-----------------------*|
|-----------------------|-----------------------*|
|-----------------------|-----------------------*|

Song info
The Joker
Steve Miller
2001
  • Rock
  • Blues Rock
  • Pop Rock
Alternative tracks
Similar songs
Proud Mary - Creedence Clearwater Revival
Cendrillon - Téléphone
Rosemary Love Goes - Edison Lighthouse
Separate Ways - Journey
Take The Money And Run - Steve Miller

Hi! Hope you enjoy backing track experience.
If you want to help us in the development of the project, feel free to donate!