Until The Day I Die - Story of the Year
00:00 / 00:00
Tabs and lyrics
Tunning: Standard (E A D G B e)
----------------------------------------------------------------------------
UNTIL THE DAY DIE - STORY OF THE YEAR
----------------------------------------------------------------------------

Tuning:d

[Intro]
e|---------------------------------------------|
B|---------10-------------------10-------------|
G|-----7------7---7-------7---7----7---7-------|
D|-9-9---9------9-----------9--------9---------|
A|---------------------------------------------|
D|---------------------------------------------|

e|------------------------------------------------|
B|------------------------------------------------|
G|------------------------------------------------|
D|-121212-121212--1111-111111--777-777--77-777----|
A|--9-9-9--9-9-9---9-9--9-9-9--555-555--55-555----|
D|--9-9-9--9-9-9---9-9--9-9-9--555-555--55-555----|

[Verse]

guitar 1 plays intro
guitar 2-
e|---------------------------------------------|
B|---------------------------------------------|
G|---------------------77777777----------------|
D|-99999999--55555555--77777777--77777777------|
A|-99999999--55555555--55555555--77777777------|
D|-99999999--55555555------------77777777------|

[Chorus]
*CHORUS* (1:10-1:29)
e|------------------------------------------------------|
B|------------------------------------------------------|
G|------------------------------------------------------|
D|-5-5-5--7-7-7--1212121212121212-1111111111111111------|
A|-5-5-5--7-7-7---9-9-9-9-9-9-9-9--9-9-9-9-9-9-9-9------|
D|-5-5-5--7-7-7---9-9-9-9-9-9-9-9--9-9-9-9-9-9-9-9------|

thats basically it 4 most of the song but the las 3 chords are

e|------------------------|
B|------------------------|
G|------------------------|
D|-9-9---7-7---5-5~~------|
A|-9-9---7-7---5-5~~------|
D|-9-9---7-7---5-5~~------

have fun got any corrections lemmie kno n lets get up some more soty tabs l8er guys



************************************

| ~ Vibrato

************************************
Tunning: Standard (E A D G B e)
Here's a new tab for Story Of The Year - Until The Day I Die (The pre-album ver.)
If there are any corrections, please let me know. Input is greatly appreciated!
Word of advice: Play it loud and just go straight down for either guitar 1 or 2.
Enjoi their new album out 9/16/03!


Intro (Distortion)
e| |---------------------------------------------------|
B| |---------------------------------------------------|
G|x2 |---------------14--------------------14------------| #1 Palm Muted Here
D| |------12----12----12----12--12----12----12----12---|
A| |---14----14----------14--------14----------14------|
E| |---------------------------------------------------|

On #2 and #3, slide down on the first note but then leave it out on the repeat.

Guitar 1 : Here it helps to use all downstrokes and some sort of muting technique a little bit.
e| |------------------------------------------------------------------------------------------|
B| |---15--15-15-15--15-15-15---14-14-14--14-14-14--------------------------------------------|
G|x2 |---14--14-14-14--14-14-14---14-14-14--14-14-14---14-14-14--14-14-14--14-14-14--14-14-14---| #2
D| |---12--12-12-12--12-12-12---12-12-12--12-12-12---12-12-12--12-12-12--12-12-12--12-12-12---|
A| |-------------------------------------------------12-12-12--12-12-12--12-12-12--12-12-12---|
E| |------------------------------------------------------------------------------------------|

Guitar 2
e| |-----------------------------------------------------------|
B| |-----------------------------------------------------------|
G|x2 |---7---4-4-4--4-4-4--4-4--6--7---------------------2-2-2---| #3
D| |---7---4-4-4--4-4-4--4-4--6--7--5-5-5--5-5-5--5-5--2-2-2---|
A| |---5---2-2-2--2-2-2--2-2--4--5--5-5-5--5-5-5--5-5--0-0-0---|
E| |--------------------------------3-3-3--3-3-3--3-3----------|

Guitar 1 (palm muted again)
e| |----------------------------------------------------------------------------------------------|
B| |----------------------------------------------------------------------------------------------|
G|x3 |-------------14--------------------14-----------------------14--------------------16----------| #4
D| |----12----12----12----12--12----12----12----12-----12----12----12----12--14-11-14----14-11-14-|
A| |-14----14----------14--------14----------14-----14----14----------14--------------------------|
E| |----------------------------------------------------------------------------------------------|

Out into chorus.
e| |------------------------------------------------------------------------------------------------|
B| |------------------------------------------------------------------------------------------------|
G|x1 |-------------14--------------------14-----------------------14-14-14-14-------------14-14-14-14-| #5
D| |----12----12----12----12--12----12----12----12-----12----12----------------12----12-------------|
A| |-14----14----------14--------14----------14-----14----14----------------14----14----------------|
E| |------------------------------------------------------------------------------------------------|

Guitar 2
Let these two ring.
e| |---------|
B| |---------|
G|x1 |---7-----| #6
D| |-----7---|
A| |---------|
E| |---------|

Palm muted.
e| |------------------------------------------------------------------------|
B| |------------------------------------------------------------------------|
G|x1 |---4-4-4-4-4-4-4-4-------------------7-7-7-7-7-7-7-7--2-2-2-2-2-2-2-2---| #7
D| |---4-2-2-2-2-2-2-2--5-5-5-5-5-5-5-5--7-7-7-7-7-7-7-7--2-2-2-2-2-2-2-2---|
A| |---2-2-2-2-2-2-2-2--5-5-5-5-5-5-5-5--5-5-5-5-5-5-5-5--0-0-0-0-0-0-0-0---|
E| |--------------------3-3-3-3-3-3-3-3-------------------------------------|


e| |---------------------------------------------------------------------------|
B| |---------------------------------------------------------------------------|
G|x1 |---4-4-4-4-4-4-4-4----------------------4-4-4-4-4-4-4-4--2-2-2-2-2-2-2-2---| #8
D| |---4-2-2-2-2-2-2-2--5-5-5-5-5-5-5-5-----2-2-2-2-2-2-2-2--2-2-2-2-2-2-2-2---|
A| |---2-2-2-2-2-2-2-2--5-5-5-5-5-5-5-5-----2-2-2-2-2-2-2-2--0-0-0-0-0-0-0-0---|
E| |--------------------3-3-3-3-3-3-3-3----------------------------------------|
^Open distortion here.

Guitar 1(after a short pause)
e| |-----------------------------------------------------------------------|
B| |---------------------------------------15-15H17L15-15H17L15-15H17L15---|
G|x1 |---14-14-14-14---14-14-14-14-------------------------------------------| #9
D| |-----------------------------12----12----------------------------------|
A| |--------------------------------14-------------------------------------|
E| |-----------------------------------------------------------------------|

e| |--------------------------------------------------------------------------------------------|
B| |--------------------------------------------------------------------------------------------|
G|x1 |-14-14-14-14-----------14-14-14-14-----------14-14-14-14------------14-14-14-14-14-14-14-14-| #10
D| |-------------12-11-----------------12-11-----------------12-11------------------------------|
A| |-------------------12--------------------12--------------------12---------------------------|
E| |--------------------------------------------------------------------------------------------|
^tiny pause between these
Guitar 2 two parts
|-----------------------------------|
|-----------------------------------|
x3 |----------2-2-2--4-4-4-4-4-4-4-4---| #11
|---5-5-5--2-2-2--4-4-4-4-4-4-4-4---|
|---5-5-5--0-0-0--2-2-2-2-2-2-2-2---|
|---3-3-3---------------------------|

e| |------------------|
B| |------------------|
G|x1 |----------2-2-2---| #12
D| |---5-5-5--2-2-2---|
A| |---5-5-5--0-0-0---|
E| |---3-3-3----------|

Guitar 1
e| |----------------------------------------------------------------------------------------------|
B| |----------------------------------------------------------------------------------------------|
G|x3 |-------------14--------------------14-----------------------14--------------------16----------| #4
D| |----12----12----12----12--12----12----12----12-----12----12----12----12--14-11-14----14-11-14-|
A| |-14----14----------14--------14----------14-----14----14----------14--------------------------|
E| |----------------------------------------------------------------------------------------------|

e| |------------------------------------------------------------------------------------------------|
B| |------------------------------------------------------------------------------------------------|
G|x1 |-------------14--------------------14-----------------------14-14-14-14-------------14-14-14-14-| #5
D| |----12----12----12----12--12----12----12----12-----12----12----------------12----12-------------|
A| |-14----14----------14--------14----------14-----14----14----------------14----14----------------|
E| |------------------------------------------------------------------------------------------------|

Guitar 2

(Palm muted)
e| |------------------------------------------------------------------------|
B| |------------------------------------------------------------------------|
G|x2 |---4-4-4-4-4-4-4-4-------------------7-7-7-7-7-7-7-7--2-2-2-2-2-2-2-2---| #13
D| |---4-2-2-2-2-2-2-2--5-5-5-5-5-5-5-5--7-7-7-7-7-7-7-7--2-2-2-2-2-2-2-2---|
A| |---2-2-2-2-2-2-2-2--5-5-5-5-5-5-5-5--5-5-5-5-5-5-5-5--0-0-0-0-0-0-0-0---|
E| |--------------------3-3-3-3-3-3-3-3-------------------------------------|

Accent each third note and let ring just a little bit.
e| |-----------------------------------------------------------|
B| |-----------------------------------------------------------|
G|x1 |---4-4-4-4-4-4-----------------7-7-7-7-7-7---2-2-2-2-2-2---| #14
D| |---4-2-2-2-2-2---5-5-5-5-5-5---7-7-7-7-7-7---2-2-2-2-2-2---|
A| |---2-2-2-2-2-2---5-5-5-5-5-5---5-5-5-5-5-5---0-0-0-0-0-0---|
E| |-----------------3-3-3-3-3-3-------------------------------|

e| |---------------------------------------------------------------------------|
B| |---------------------------------------------------------------------------|
G|x1 |---4-4-4-4-4-4-4-4----------------------4-4-4-4-4-4-4-4--2-2-2-2-2-2-2-2---| #8
D| |---4-2-2-2-2-2-2-2--5-5-5-5-5-5-5-5-----2-2-2-2-2-2-2-2--2-2-2-2-2-2-2-2---|
A| |---2-2-2-2-2-2-2-2--5-5-5-5-5-5-5-5-----2-2-2-2-2-2-2-2--0-0-0-0-0-0-0-0---|
E| |--------------------3-3-3-3-3-3-3-3----------------------------------------|

Guitar 1
e| |-----------------------------------------------------------------------|
B| |---------------------------------------15-15H17L15-15H17L15-15H17L15---|
G|x1 |---14-14-14-14---14-14-14-14-------------------------------------------| #9
D| |-----------------------------12----12----------------------------------|
A| |--------------------------------14-------------------------------------|
E| |-----------------------------------------------------------------------|

e| |--------------------------------------------------------------------------------------------|
B| |--------------------------------------------------------------------------------------------|
G|x1 |-14-14-14-14-----------14-14-14-14-----------14-14-14-14------------14-14-14-14-14-14-14-14-| #10
D| |-------------12-11-----------------12-11-----------------12-11------------------------------|
A| |-------------------12--------------------12--------------------12---------------------------|
E| |--------------------------------------------------------------------------------------------|

This one part below seems to be a little more busy.
e|----------------------------|
B|-----------------------10---|
G|-----------------11-12------| #15
D|------12-11-9-12------------|
A|---10-----------------------|
E|----------------------------|

Guitar 2
e| |-----------------------------------|
B| |-----------------------------------|
G|x3 |----------2-2-2--4-4-4-4-4-4-4-4---| #11
D| |---5-5-5--2-2-2--4-4-4-4-4-4-4-4---|
A| |---5-5-5--0-0-0--2-2-2-2-2-2-2-2---|
E| |---3-3-3---------------------------|

e| |------------------------------------------|
B| |------------------------------------------|
G|x1 |----------2-2-2---4-4--2-2----------------| #16
D| |---5-5-5--2-2-2---4-4--2-2--5-5-5-5-5-5---|
A| |---5-5-5--0-0-0---2-2--0-0--5-5-5-5-5-5---|
E| |---3-3-3--------------------3-3-3-3-3-3---|


e| |---------------------------|
B| |---------------------------|
G|x3 |---4-4--2-2----------------| #17
D| |---4-4--2-2--5-5-5-5-5-5---|
A| |---2-2--0-0--5-5-5-5-5-5---|
E| |-------------3-3-3-3-3-3---|

e| |----------------------|
B| |------------------3---|
G|x1 |---4-4--2-2-------4---| #18
D| |---4-4--2-2--5-5------|
A| |---2-2--0-0--5-5------|
E| |-------------3-3------|
^Let this note ring.

Guitar 1 (very little difference between the two)
e| |-------------------------------------------------------------------------------------------------|
B| |-------------------------------------------------------------------------------------------------|
G|x5 |-------------------------------------------------------------------------------------------------| #19
D| |-------------12-------12-----------12-------12--------------12-------12-----------11H12L11----11-|
A| |-14-14-14-14----14-14-----12-12-12----12-12-----10-10-10-10----10-10-----12-12-12----------12----|
E| |-------------------------------------------------------------------------------------------------|

e| |-------------------------------------------------------------------------------|
B| |-------------------------------------------------------------------------------|
G|x1 |-------------------------------------------------------------------------------| #20
D| |---------------12-------12-----------12-------12--------------12---------------|
A| |---14-14-14-14----14-14-----12-12-12----12-12-----10-10-10-10----10-10-10-12---|
E| |-------------------------------------------------------------------------------|

Guitar 2
Let these two ring.
e| |---------|
B| |---------|
G|x1 |---7-----| #6
D| |-----7---|
A| |---------|
E| |---------|

Guitar 2
e| |-----------------------------------------------------------|
B| |-----------------------------------------------------------|
G|x2 |---7---4-4-4--4-4-4--4-4--6--7---------------------2-2-2---| #3
D| |---7---4-4-4--4-4-4--4-4--6--7--5-5-5--5-5-5--5-5--2-2-2---|
A| |---5---2-2-2--2-2-2--2-2--4--5--5-5-5--5-5-5--5-5--0-0-0---|
E| |--------------------------------3-3-3--3-3-3--3-3----------|

e| |----------------------|
B| |------------------3---|
G|x1 |---4-4--2-2-------4---| #18
D| |---4-4--2-2--5-5------|
A| |---2-2--0-0--5-5------|
E| |-------------3-3------|
^Let this note ring.

Guitar 1

Guitar 1 : Here it helps to use all downstrokes and some sort of muting technique a little bit.
e| |------------------------------------------------------------------------------------------|
B| |---15--15-15-15--15-15-15---14-14-14--14-14-14--------------------------------------------|
G|x2 |---14--14-14-14--14-14-14---14-14-14--14-14-14---14-14-14--14-14-14--14-14-14--14-14-14---| #2
D| |---12--12-12-12--12-12-12---12-12-12--12-12-12---12-12-12--12-12-12--12-12-12--12-12-12---|
A| |-------------------------------------------------12-12-12--12-12-12--12-12-12--12-12-12---|
E| |------------------------------------------------------------------------------------------|

e|-----------------------------|
B|-----------------------------|
G|---------------12-11---------| #21
D|---------12-14-------14-12---|
A|---12-14---------------------|
E|-----------------------------|

Fin.

************************************

| x Dead note
| H Hammer on

************************************
Tunning: Standard (E A D G B e)
Artist:Story of the year
Song:Until the day i die
Tuning: Drop D

This is 100% correct! If u can find any mistakes E-mail me:wingzero_2G@msn.com

(Guitar1)Intro:
e|-------------------------------------------------------------------------|
B|-------------------------------------------------------------------------|
G|--------------14------------------------14--------------Play-------------|
D|-----12----12----12----12------12----12----12----12-----These------------|
A|--14----14----------14------------14----------14--------9-times----------|
D|-------------------------------------------------------------------------|
PM.............. ....................... ..........

(Guitar2)Intro:!Play these chords after guitar1 played intro twice!
until the day I die~~~~~I spill my heart for u~~~~
e|--0--0-0--0--0--0~~---0-0---0--0-0--0--0-0--0--0-------------------------|
B|--1--1-1--0--0--1~~---1-0---1--1-1--0--0-1--1--0------Play these twice---|
G|--2--2-2--0--0--0~~---0-0---2--2-2--0--0-0--0--0-------------------------|
D|--3--3-3--2--2--2~~---2-2---3--3-3--2--2-2--2--2-------------------------|
A|--0--0-0--2--2--3~~---3-2---0--0-0--2--2-3--3--2-------------------------|
D|--0--0-0--0--0--0~~---0-0---0--0-0--0--0-0--0--0-------------------------|

Before Verse:
Both Guitar
e|-------------------------------------------------------------------------|
B|-------------------------------------------------------------------------|
G|-------------------------------------------------------------------------|
D|--121212-121212-1111-111111-777-777-77-777-------Play these tiwce--------|
A|---9-9-9--9-9-9--9-9--9-9-9-555-555-55-555-------------------------------|
D|---9-9-9--9-9-9--9-9--9-9-9-555-555-55-555-------------------------------|

Verse1:
Guitar1 plays intro without stoping
Guitar2 play these chords
e|----------------------------------------play-these-chords-after-guitar1---
B|----------------------------------------played-intro-four-times-then-stop-
G|---------------------77777777-----------and-let-G1(Guitar1)play-intro-once
D|-99999999--55555555--77777777--77777777-then-G2-play-these-chords-twice---
A|-99999999--55555555--55555555--77777777-again-----------------------------
D|-99999999--55555555------------77777777-----------------------------------
PM........................................let go Pm for the last two chords
when playing the last time!

Chours:
Both Guitar
e|---------------------------------------------------|---------------------|
B|---------------------------------------------------|---------------------|
G|---------------------------------------------------|---------------------|
D|-555--777--121212111111--Play-three-times-then-end-|--555--777-----------|
A|-555--777---9-9-9-9-9-9--------with-this-----------|--555--777-----------|
D|-555--777---9-9-9-9-9-9----------------------------|--555--777-----------|

Verse2:
Both
e|-------------------------------------------------------------------------|
B|-------------------------------------------------------------------------|
G|---------------------77777777--------------------------------------------|
D|-99999999--55555555--77777777--77777777-----Play-these-twice-------------|
A|-99999999--55555555--55555555--77777777-----then-play-it-all-------------|
D|-99999999--55555555------------77777777-----PM-Twice---------------------|
PM.... ... ... ... ... ... ... ...

That's Basically what the song plays!Have Fun
Tunning: Standard (E A D G B e)
----------------------------------------------------------------------------
Until The Day I Die - Story of The Year
----------------------------------------------------------------------------
Tabbed by:twiztdskatr
Email: twiztdskatr@hotmail.com

This is as close as I could get, the lead parts were hard to identify.

Tuning:
Ryan Phillips - Guitar 2 (Lead) - Drop D
Phillip Sneed - Guitar 1 (Rhythm) - Standard

Guitar 1 Intro
0:01-0:25 Distortion
(Palm Muted)
e|-------------------------------------------------------------------------|
B|----10------10-----------------------------------------------------------|
G|-7-7--7-77-7--7-7--------------------------------------------------------|
D|9-9----9--9----9---------------------------------------------------------|
A|-------------------------------------------------------------------------|
E|-------------------------------------------------------------------------|

Guitar 1 Verse 1
0:25-0:36
e|-------------------------------------------------------------------------|
B|-------------------------------------------------------------------------|
G|999-999-555-555-777-777-77-77--------------------------------------------|
D|999-999-555-555-777-777-77-77--------------------------------------------|
A|777-777-333-333-555-555-55-55--------------------------------------------|
E|-------------------------------------------------------------------------|

Guitar 2 Verse 1
0:25-0:36
e|--------------------------------------------------|----------------------|
B|151515x151515x141414x141414-----------------------|----------------------|
G|xxxxxxxxxxxxxxxxxxxxxxxxxxx141414x141414x1414x1414|--7-7h9---------------|
d|121212x121212x121212x141414xxxxxxxxxxxxxxxxxxxxxxx|-9-----9--------------|
A|---------------------------121212x121212x1414x1212|----------------------|
D|--------------------------------------------------|----------------------|

Guitar 1
0:36-1:10
Repeat Intro W/ Distortion

Guitar 2 Verse 2
0:47-1:00
(Palm Muted)
e|-----------------------------------|-------------------------------------|
B|-----------------------------------|-------------------------------------|
G|-----------------------------------|-7-----------------------------------|
d|99999999-77777777-0000000000000000-|-7-(Let Ring)------------------------|
A|99999999-77777777-0000000000000000-|-9-----------------------------------|
D|99999999-77777777-0000000000000000-|-------------------------------------|

Pick Scrape

Guitar 1 Chorus
(1:10-1:30}
e|-------------------------------------------------------------------------|
B|-------------------------------------------------------------------------|
G|--------222--44444444----------------------------------------------------|
d|---555--222--44444444----------------------------------------------------|
A|---555--000--22222222----------------------------------------------------|
E|---333-------------------------------------------------------------------|

Guitar 2 Chorus
(1:10-1:30)
e|----------------------|--------------------------------------------------|
B|----------------------|-9h10p9-9h10p9-9h10p9-----------------------------|
G|--------222--44444444-|--------------------------------------------------|
d|---555--222--44444444-|--------------------------------------------------|
A|---555--000--22222222-|--------------------------------------------------|
E|---555----------------|--------------------------------------------------|

Guitar 1
Repeat Intro

Guitar 2
Repeat Verse 2

Guitar 1
Repeat Chorus

Guitar 2
Repeat Chorus

Guitar 1 Verse 3
e|-----------------------------------|
B|-----------------------------------|
G|-----------------------------------|
d|1111-99-7--------------------------|
A|1111-99-7-(Let Ring)---------------|
E|9-9--77-5--------------------------|

Guitar 2 Verse 3
e|-----------------------------------|
B|-----------------------------------|
G|-----------------------------------|
d|9-9-77-5---------------------------|
A|9-9-77-5-(Let Ring)----------------|
D|9-9-77-5---------------------------|

Guitar 1
Repeat Intro

Guitar 2
e|-----------------------------------|-------------------------------------|
B|-----------------------------------|-------------------------------------|
G|9h10p9-9-10-7----------------------|-------------------------------------|
d|-----------------------------------|-------------------------------------|
A|-----------------------------------|-------------------------------------|
D|-----------------------------------|-------------------------------------|

Long Silent Part

Guitar 1
Repeat Chorus

Guitar 2
Repeat Chorus

Guitar 1
Repeat Verse 1

Guitar 2
Repeat Verse 1

Guitar 1
Repeat Verse 3

Guitar 2
Repeat Verse 3

~Peace~
Tunning: Standard (E A D G B e)
#----------------------------------PLEASE NOTE---------------------------------#
#This file is the author's own work and represents their interpretation of the #
#song. You may only use this file for private study, scholarship, or research. #
#------------------------------------------------------------------------------##

UNTIL THE DAY I DIE
As recorded by Story Of The Year
(From the 2003 Album PAGE AVENUE)

Transcribed by PunKKiD182

D5/A
x x x x 10 10

Gtr I (D A D G B E) - 'Clean'
Gtr II (D A D G B E) - 'Distortion'
Gtr III (D A D G B E) - 'Distortion'
Gtr IV (D A D G B E) - 'Overdrive'
Gtr V (E A D G B E) - 'Clean'
Gtr VI (E A D G B E) - 'synth'

Intro
Q=184
N.C.
4/4
Gtr IV
PM----------------------------------------|
E E E E E E E E E E E E E E E E
||----------------------|------------------------||
||o---------10---(10)---|-----------10---(10)---o||
||----7---7----7------7-|-----7---7----7------7--||
||--9---9----------9----|-(9)---9----------9-----||
||o---------------------|-----------------------o||
||----------------------|------------------------||


G5 A5
PM----------------------------------------|
E E E E E E E E E E E E E E E E
||----------------------|-----------------------|
||o---------10---(10)---|-----------10---(10)---|
||----7---7----7------7-|-----7---7----7------7-|
||--9---9----------9----|-(9)---9----------9----|
||o---------------------|-----------------------|
||----------------------|-----------------------|
|
| Gtr I
| H Q Q H Q Q
||-----------5-----5----|-----------------------|
||o----------8-----8----|-----------10----10----|
||-----------7-----7----|------------9-----9----|
||--5--------5-----5/---|--7---------7-----7/---|
||o-5--------5-----5/---|--7---------7-----7/---|
||--5--------5-----5/---|--7---------7-----7/---|


B5
PM------------------------------------------|
E E E E E E E E E E E E E E E E 3x
|----------------------|--------------------------||
|---------10---(10)----|------------10---(10)----o||
|---7---7----7-------7-|------7---7----7-------7--||
|-9---9----------9-----|-(9)----9----------9------||
|----------------------|-------------------------o||
|----------------------|--------------------------||
|
| Q Q Q E E E E Q Q E E 3x
|----------------------|--------------------------||
|---------10--------10-|-----10-----10--------10-o||
|---------11--------11-|-----11-----11--------11--||
|-9---9----9-----9---9-|--9---9-9----9-----9---9--||
|-9---9----9-----9---9-|--9---9-9----9-----9---9-o||
|-9---9----9-----9---9-|--9---9-9----9-----9---9--||


G5 A5
PM----------------------------------------|
E E E E E E E E E E E E E E E E
|---------------------|-----------------------||
|---------10---(10)---|-----------10---(10)---||
|---7---7----7------7-|-----7---7----7------7-||
|-9---9----------9----|-(9)---9----------9----||
|---------------------|-----------------------||
|---------------------|-----------------------||
|
| H Q Q H Q Q
|----------5-----5----|-----------------------||
|----------8-----8----|-----------10----10----||
|----------7-----7----|------------9-----9----||
|-5--------5-----5/---|--7---------7-----7/---||
|-5--------5-----5/---|--7---------7-----7/---||
|-5--------5-----5/---|--7---------7-----7/---||


B5
Gtrs II, III
E E q E E q E E q E E E E
|---------------------|----------------------|
|---------------------|----------------------|
|---------------------|----------------------|
|--9--9--9---9--9--9--|-----9--9---9--9--9---|
|--9--9--9---9--9--9--|-----9--9---9--9--9-0-|
|--9--9--9---9--9--9--|-----9--9---9--9--9-0-|
|
| Gtr IV
| E E q E E q E E q E E q
|---------------------|----------------------|
|-15-15-15--15-15-15--|-14-14-14--14-14-14---|
|-14-14-14--14-14-14--|-14-14-14--14-14-14---|
|-12-12-12--12-12-12--|-12-12-12--12-12-12---|
|---------------------|----------------------|
|---------------------|----------------------|


G5 A5
E E q E E q E E q E E E E
|---------------------|----------------------|
|---------------------|----------------------|
|---------------------|----------------------|
|--5--5--5---5--5--5--|-----5--5---7--7--7-7-|
|--5--5--5---5--5--5--|-----5--5---7--7--7-7-|
|--5--5--5---5--5--5--|-----5--5---7--7--7-7-|
|
| E E q E E q E E q E E q
|---------------------|----------------------|
|---------------------|----------------------|
|-14-14-14--14-14-14--|-14-14-14--14-14-14---|
|-12-12-12--12-12-12--|-12-12-12--12-12-12---|
|-12-12-12--12-12-12--|-12-12-12--12-12-12---|
|---------------------|----------------------|


B5
E E q E E q E E q E E E E
|---------------------|----------------------|
|---------------------|----------------------|
|---------------------|----------------------|
|--9--9--9---9--9--9--|-----9--9---9--9--9---|
|--9--9--9---9--9--9--|-----9--9---9--9--9-0-|
|--9--9--9---9--9--9--|-----9--9---9--9--9-0-|
|
| E E q E E q E E q E E q
|---------------------|----------------------|
|-15-15-15--15-15-15--|-14-14-14--14-14-14---|
|-14-14-14--14-14-14--|-14-14-14--14-14-14---|
|-12-12-12--12-12-12--|-12-12-12--12-12-12---|
|---------------------|----------------------|
|---------------------|----------------------|


G5 A5
E E q E E q E E q E E E E
|---------------------|----------------------||
|---------------------|----------------------||
|---------------------|----------------------||
|--5--5--5---5--5--5--|-----5--5---7--7--7---||
|--5--5--5---5--5--5--|-----5--5---7--7--7---||
|--5--5--5---5--5--5--|-----5--5---7--7--7---||
|
| E E q E E q E E q E E q
|---------------------|----------------------||
|---------------------|----------------------||
|-14-14-14--14-14-14--|-14-14-14--14-14-14---||
|-12-12-12--12-12-12--|-12-12-12--12-12-12---||
|-12-12-12--12-12-12--|-12-12-12--12-12-12---||
|---------------------|----------------------||


Verse
N.C.
Gtr IV
PM----------------------------------------|
E E E E E E E E E E E E E E E E
|---------------------|-----------------------|
|---------10---(10)---|-----------10---(10)---|
|---7---7----7------7-|-----7---7----7------7-|
|-9---9----------9----|-(9)---9----------9----|
|---------------------|-----------------------|
|---------------------|-----------------------|
|
| Gtr I
| W +W
|---------------------|-----------------------|
|-7-------------------|-(7)-------------------|
|---------------------|-----------------------|
|---------------------|-----------------------|
|---------------------|-----------------------|
|---------------------|-----------------------|


PM-----------------------------------------|
E E E E E E E E E E E E E E E E
|---------------------|------------------------|
|---------10---(10)---|------------12---(12)---|
|---7---7----7------7-|-----9----9----9------9-|
|-9---9----------9----|-(9)---11---------11----|
|---------------------|------------------------|
|---------------------|------------------------|
|
| W W
|---------------------|------------------------|
|-7-------------------|------------------------|
|---------------------|--9---------------------|
|---------------------|------------------------|
|---------------------|------------------------|
|---------------------|------------------------|


PM----------------------------------------|
E E E E E E E E E E E E E E E E
|---------------------|-----------------------|
|---------10---(10)---|-----------10---(10)---|
|---7---7----7------7-|-----7---7----7------7-|
|-9---9----------9----|-(9)---9----------9----|
|---------------------|-----------------------|
|---------------------|-----------------------|
|
| W +W
|---------------------|-----------------------|
|-7-------------------|-(7)-------------------|
|---------------------|-----------------------|
|---------------------|-----------------------|
|---------------------|-----------------------|
|---------------------|-----------------------|


PM-------------------------------------------|
E E E E E E E E E E E E E E E E
|-----------------------|------------------------||
|----------10----(10)---|------------12---(12)---||
|----7---7-----7------7-|-----9----9----9------9-||
|-9----9-----------9----|-(9)---11---------11----||
|-----------------------|------------------------||
|-----------------------|------------------------||
|
| Q. E +H +W
|-----------------------|------------------------||
|-----------------------|------------------------||
|-7---------------------|------------------------||
|--------7-(7)----------|-(7)--------------------||
|-----------------------|------------------------||
|-----------------------|------------------------||


B5 G5
PM----------------------------------------|
E E E E E E E E E E E E E E E E
||----------------------|-----------------------|
||o---------10---(10)---|-----------10---(10)---|
||----7---7----7------7-|-----7---7----7------7-|
||--9---9----------9----|-(9)---9----------9----|
||o---------------------|-----------------------|
||----------------------|-----------------------|
|
| Gtrs II, III
| PM----------------------------------------|
| E E E E E E E E E E E E E E E E
||----------------------|-----------------------|
||o---------------------|-----------------------|
||----------------------|-----------------------|
||----------------------|-----------------------|
||o-9-9-9-9--9-9---9--9-|--5--5-5-5--5-5---5--5-|
||--9-9-9-9--9-9---9--9-|--5--5-5-5--5-5---5--5-|


D A5
PM-----------------------------------------|
E E E E E E E E E E E E E E E E
|---------------------|------------------------|
|---------10---(10)---|------------12---(12)---|
|---7---7----7------7-|-----9----9----9------9-|
|-9---9----------9----|-(9)---11---------11----|
|---------------------|------------------------|
|---------------------|------------------------|
|
| PM-----------------------------------------|
| E E E E E E E E E E E E E E E E
|---------------------|------------------------|
|---------------------|------------------------|
|---------------------|------------------------|
|---------------------|------------------------|
|-9-9-9-9--9-9---9--9-|--7--7--7-7--7-7---7--7-|
|-0-0-0-0--0-0---0--0-|--7--7--7-7--7-7---7--7-|


B5 G5
PM----------------------------------------|
E E E E E E E E E E E E E E E E
|---------------------|-----------------------|
|---------10---(10)---|-----------10---(10)---|
|---7---7----7------7-|-----7---7----7------7-|
|-9---9----------9----|-(9)---9----------9----|
|---------------------|-----------------------|
|---------------------|-----------------------|
|
| PM----------------------------------------|
| E E E E E E E E E E E E E E E E
|---------------------|-----------------------|
|---------------------|-----------------------|
|---------------------|-----------------------|
|---------------------|-----------------------|
|-9-9-9-9--9-9---9--9-|--5--5-5-5--5-5---5--5-|
|-9-9-9-9--9-9---9--9-|--5--5-5-5--5-5---5--5-|


1.
D A5
PM-----------------------------------------|
E E E E E E E E E E E E E E E E
|---------------------|-------------------------|
|---------10-10-10-10-|-(10)--------12-12-12-12-|
|---7---7--7--7--7--7-|--(7)-9----9--9--9--9--9-|
|-9---9----9--9--9--9-|--(9)---11---11-11-11-11-|
|---------------------|-------------------------|
|---------------------|-------------------------|
|
| Gtr II
| PM--|
| E E E E E E E E E E E E E E E E
|---------------------|-------------------------|
|-7-7-7-7--7--7--7--7-|-------------------------|
|-7-7-7-7--7--7--7--7-|---9--9--9-9--9--9--9--9-|
|-7-7-7-7--7--7--7--7-|---7--7--7-7--7--7--7--7-|
|-9-9-9-9--9--9--9--9-|---7--7--7-7--7--7--7--7-|
|-0-0-0-0--0--0--0--0-|---7--7--7-7--7--7--7--7-|
|
| Gtr III
| PM---------|
| E E E E E E E E E E E E E E E E
|---------------------|-------------------------|
|---------------------|-------------------------|
|---------------------|-------------------------|
|-0-0-0-0--0--0--0--0-|---7--7--7-7--7--7--7--7-|
|-0-0-0-0--0--0--0--0-|---7--7--7-7--7--7--7--7-|
|-0-0-0-0--0--0--0--0-|---7--7--7-7--7--7--7--7-|


B5
PM----------------------------------------|
E E E E E E E E E E E E E E E E
|---------------------|------------------------||
|---------10---(10)---|-----------10---(10)---o||
|---7---7----7------7-|-----7---7----7------7--||
|-9---9----------9----|-(9)---9----------9-----||
|---------------------|-----------------------o||
|---------------------|------------------------||
|
| Gtrs II, III
| W +H Q Q
|---------------------|------------------------||
|---------------------|-----------------------o||
|---------------------|------------------------||
|-9-------------------|-(9)--------------------||
|-9-------------------|-(9)--------xs====x\---o||
|-9-------------------|-(9)--------xs====x\----||


2.
D A5
Gtr IV
PM-----------------------------------------|
E E E E E E E E E E E E E E E E
|---------------------|-------------------------||
|---------10-10-10-10-|-(10)--------12-12-12-12-||
|---7---7--7--7--7--7-|--(7)-9----9--9--9--9--9-||
|-9---9----9--9--9--9-|--(9)---11---11-11-11-11-||
|---------------------|-------------------------||
|---------------------|-------------------------||
|
| Gtr II
| PM--|
| E E E E E E E E E E E E E E E E
|---------------------|-------------------------||
|-7-7-7-7--7--7--7--7-|-------------------------||
|-7-7-7-7--7--7--7--7-|---9--9--9-9--9--9--9--9-||
|-7-7-7-7--7--7--7--7-|---7--7--7-7--7--7--7--7-||
|-9-9-9-9--9--9--9--9-|---7--7--7-7--7--7--7--7-||
|-0-0-0-0--0--0--0--0-|---7--7--7-7--7--7--7--7-||
|
| Gtr III
| PM---------|
| E E E E E E E E E E E E E E E E
|---------------------|-------------------------||
|---------------------|-------------------------||
|---------------------|-------------------------||
|-0-0-0-0--0--0--0--0-|---7--7--7-7--7--7--7--7-||
|-0-0-0-0--0--0--0--0-|---7--7--7-7--7--7--7--7-||
|-0-0-0-0--0--0--0--0-|---7--7--7-7--7--7--7--7-||


Chorus
$
$$
G5 E5/A
Gtrs II, III
E E q H E E q H
|-------------|-------------|
|-------------|-------------|
|-7-7-7-------|-------------|
|-5-5-5-------|-9-9-9-------|
|-5-5-5-------|-7-7-7-------|
|-5-5-5-------|-7-7-7-------|


D/B
E E E E E E E E E E E E E E E E
|-------------------------|--------------------------|
|-------------------------|--------------------------|
|-------------------------|--------------------------|
|-12-12-12-12-12-12-12-12-|-12-12-12-12-12-12-12-12--|
|--9--9--9--9--9--9--9--9-|--9--9--9--9--9--9--9--9--|
|--9--9--9--9--9--9--9--9-|--9--9--9--9--9--9--9--9--|


G5 E5/A
E E q H E E q H
|-------------------------|---------------------|
|-------------------------|---------------------|
|--7--7--7----------------|---------------------|
|--5--5--5----------------|-9-9-9---------------|
|--5--5--5----------------|-7-7-7---------------|
|--5--5--5----------------|-7-7-7---------------|
|
| Gtr IV
| E E E E E E E E E E E E E E E E
|-------------10-10-10-10-|-9-9-9-9-------------|
|-10-10-10-10--x--x--x--x-|-x-x-x-x-10-10-10-10-|
|--x--x--x--x--7--7--7--7-|-6-6-6-6--x--x--x--x-|
|--7--7--7--7-------------|----------7--7--7--7-|
|-------------------------|---------------------|
|-------------------------|---------------------|


D/B
E E E E E E E E E E E E E E E E
|-------------------------|--------------------------|
|-------------------------|--------------------------|
|-------------------------|--------------------------|
|-12-12-12-12-12-12-12-12-|-12-12-12-12-12-12-12-12--|
|--9--9--9--9--9--9--9--9-|--9--9--9--9--9--9--9--9--|
|--9--9--9--9--9--9--9--9-|--9--9--9--9--9--9--9--9--|
|
| E E E E E E E E Q E E E E E E
|-10-10-10-10-10-10-10s12s|=10----10-12-10-10--9-----|
|--x--x--x--x--x--x--x----|--------x--x--x--x--x-10--|
|--7--7--7--7--7--7--7s=9s|==7-----7--9--7--7--6--x--|
|-------------------------|-----------------------7--|
|-------------------------|--------------------------|
|-------------------------|--------------------------|


G5 E5/A
E E q H E E q H
|-----------------------|----------------------|
|-----------------------|----------------------|
|---7--7--7-------------|----------------------|
|---5--5--5-------------|--9--9--9-------------|
|---5--5--5-------------|--7--7--7-------------|
|---5--5--5-------------|--7--7--7-------------|
|
| E E E E E E E E E E E E E E E E
|-----------------------|----------------------|
|-/10-10-10-10-10-------|-10-10-10-10-10-------|
|-----------------7-6---|----------------7-6---|
|---------------------7-|--------------------7-|
|-----------------------|----------------------|
|-----------------------|----------------------|


D/B
E E E E E E E E E E E E E E E E
|-------------------------|--------------------------|
|-------------------------|--------------------------|
|-------------------------|--------------------------|
|-12-12-12-12-12-12-12-12-|-12-12-12-12-12-12-12-12--|
|--9--9--9--9--9--9--9--9-|--9--9--9--9--9--9--9--9--|
|--9--9--9--9--9--9--9--9-|--9--9--9--9--9--9--9--9--|
|
| E E E E E E E E E E E E E E E E
|-------------------------|-------------10-10--------|
|-10-10-10-10-10----------|--------------x--x-10-10--|
|-----------------7--6--7-|--9--7--6--7--7--7--x--x--|
|-------------------------|--------------------7--7--|
|-------------------------|--------------------------|
|-------------------------|--------------------------|


To Coda
To Coda
G5 E5/A
E E q H E E q H
|-------------------------|---------------------|
|-------------------------|---------------------|
|--7--7--7----------------|---------------------|
|--5--5--5----------------|--9--9--9------------|
|--5--5--5----------------|--7--7--7------------|
|--5--5--5----------------|--7--7--7------------|
|
| E E E E E E E E E E E E E E E E
|-------------------------|-10-10-10-10-9-9-9-9-|
|-10-10-10-10-10-10-10-10-|--x--x--x--x-x-x-x-x-|
|--x--x--x--x--x--x--x--x-|--7--7--7--7-6-6-6-6-|
|--7--7--7--7--7--7--7--7-|---------------------|
|-------------------------|---------------------|
|-------------------------|---------------------|


W W
|---------------------|------------------------|
|---------------------|------------------------|
|---------------------|------------------------|
|---------------------|------------------------|
|---------------------|------------------------|
|---------------------|------------------------|
|
| PM----------------------------------------|
| E E E E E E E E E E E E E E E E
|---------------------|------------------------|
|---------10---(10)---|-----------10---(10)----|
|---7---7----7------7-|-----7---7----7------7--|
|-9---9----------9----|-(9)---9----------9-----|
|---------------------|------------------------|
|---------------------|------------------------|


Gtr IV
PM----------------------------------------|
E E E E E E E E E E E E E E E E
|---------------------|-----------------------||
|---------10---(10)---|-----------10---(10)---||
|---7---7----7------7-|-----7---7----7------7-||
|-9---9----------9----|-(9)---9----------9----||
|---------------------|-----------------------||
|---------------------|-----------------------||
|
| Gtrs II, III
| W H Q Q
|---------------------|-----------------------||
|---------------------|-----------------------||
|---------------------|-----------------------||
|---------------------|-----------------------||
|---------------------|------------xs====x\---||
|---------------------|------------xs====x\---||


Verse 2
B5 G5
PM----------------------------------------|
E E E E E E E E E E E E E E E E
||----------------------|-----------------------|
||o---------10---(10)---|-----------10---(10)---|
||----7---7----7------7-|-----7---7----7------7-|
||--9---9----------9----|-(9)---9----------9----|
||o---------------------|-----------------------|
||----------------------|-----------------------|
|
| Gtrs II, III
| PM| PM---| PM PM---|
| E E E E E E E E E E E E E E E E
||----------------------|-----------------------|
||o---------------------|-----------------------|
||----------------------|-----------------------|
||------9----------9--9-|--9\---5----------5--5-|
||o-9-9-9-9--9-9---9--9-|--9\-5-5-5--5-5---5--5-|
||--9-9-9-9--9-9---9--9-|--9\-5-5-5--5-5---5--5-|


D A5
PM---------------------------------------------|
E E E E E E E E E E E E E E E E
|-----------------------|---------------------------||
|-----------10---(10)---|--------------12---(12)---o||
|---7---7------7------7-|-----9----9------9------9--||
|-9---9------------9----|-(9)---11-----------11-----||
|-----------------------|--------------------------o||
|-----------------------|---------------------------||
|
| PM| PM-----| PM PM-----|
| E E E S S E E E E E E E S S E E E E
|-----------------------|---------------------------||
|-----7------------7--7-|--7-----------------------o||
|-----7------------7--7-|--7-----9------------9--9--||
|-----7------------7--7-|--7-----7------------7--7--||
|-9-9-9-9-9--9-9---9--9-|--9--7--7-7-7--7-7---7--7-o||
|-0-0-0-0-0--0-0---0--0-|--0--7--7-7-7--7-7---7--7--||


B5 G5
PM----------------------------------------|
E E E E E E E E E E E E E E E E
||----------------------|-----------------------|
||o---------10---(10)---|-----------10---(10)---|
||----7---7----7------7-|-----7---7----7------7-|
||--9---9----------9----|-(9)---9----------9----|
||o---------------------|-----------------------|
||----------------------|-----------------------|
|
| PM----| PM| PM--| PM|
| E E E E E E E E E E E E E E E E
||----------------------|-----------------------|
||o---------------------|-----------------------|
||----------------------|-----------------------|
||-----------9--------9-|------------5--------5-|
||o-9-9-9-9--9-9---9--9-|--0--5-5-5--5-5---5--5-|
||--9-9-9-9--9-9---9--9-|--0--5-5-5--5-5---5--5-|


1.
D A5
PM-----------------------------------------|
E E E E E E E E E E E E E E E E
|---------------------|-------------------------||
|---------10---(10)---|------------12---(12)---o||
|---7---7----7------7-|-----9----9----9------9--||
|-9---9----------9----|-(9)---11---------11-----||
|---------------------|------------------------o||
|---------------------|-------------------------||
|
| PM----| PM| PM------| PM|
| E E E E E E E E E E E E E E E E
|---------------------|-------------------------||
|----------7--------7-|------------------------o||
|----------7--------7-|-------------9--------9--||
|----------7--------7-|-------------7--------7--||
|-9-9-9-9--9-9---9--9-|--7--7--7-7--7-7---7--7-o||
|-0-0-0-0--0-0---0--0-|--7--7--7-7--7-7---7--7--||


2.
D A5
PM-----------------------------------------|
E E E E E E E E E E E E E E E E
|---------------------|-------------------------|
|---------10-10-10-10-|-(10)--------12-12-12-12-|
|---7---7--7--7--7--7-|--(7)-9----9--9--9--9--9-|
|-9---9----9--9--9--9-|--(9)---11---11-11-11-11-|
|---------------------|-------------------------|
|---------------------|-------------------------|
|
| Gtr II
| E E E E E E E E E E E E E E E E
|---------------------|-------------------------|
|-7-7-7-7--7--7--7--7-|-------------------------|
|-7-7-7-7--7--7--7--7-|---9--9--9-9--9--9--9--9-|
|-7-7-7-7--7--7--7--7-|---7--7--7-7--7--7--7--7-|
|-9-9-9-9--9--9--9--9-|---7--7--7-7--7--7--7--7-|
|-0-0-0-0--0--0--0--0-|---7--7--7-7--7--7--7--7-|
|
| Gtr III
| PM----| PM| PM------| PM|
| E E E E E E E E E E E E E E E E
|---------------------|-------------------------|
|----------7--------7-|-------------------------|
|----------7--------7-|--------------9--------9-|
|----------7--------7-|--------------7--------7-|
|-9-9-9-9--9--9--9--9-|---7--7--7-7--7--7--7--7-|
|-0-0-0-0--0--0--0--0-|---7--7--7-7--7--7--7--7-|


D.S. al Coda
PM-------------------------------------------|
E E E E E E E E E E E E E E E E
|-------------------------|-------------------------||
|-(12)--------12-12-12-12-|-(12)--------12-12-12-12-||
|--(9)-9----9--9--9--9--9-|--(9)-9----9--9--9--9--9-||
|-(11)---11---11-11-11-11-|-(11)---11---11-11-11-11-||
|-------------------------|-------------------------||
|-------------------------|-------------------------||
|
| E E E E E E E E E E E E E E E E
|-------------------------|-------------------------||
|-------------------------|-------------------------||
|---9--9--9-9--9--9--9--9-|---9--9--9-9--9--9--9--9-||
|---7--7--7-7--7--7--7--7-|---7--7--7-7--7--7--7--7-||
|---7--7--7-7--7--7--7--7-|---7--7--7-7--7--7--7--7-||
|---7--7--7-7--7--7--7--7-|---7--7--7-7--7--7--7--7-||
|
| PM---------------------------|
| E E E E E E E E E E E E E E E E
|-------------------------|-------------------------||
|-------------------------|-------------------------||
|-------------------------|-------------------------||
|-------------------------|------7--7-7--7--7--7--7-||
|---7--7--7-7--7--7--7--7-|---7--7--7-7--7--7--7--7-||
|---7--7--7-7--7--7--7--7-|---7--7--7-7--7--7--7--7-||


Bridge
&
D/B A D5/G
Gtrs II, III
E E E E E E E E +E E E E E E E E
||----------------------|--------------------||
||o---------------------|-------------------o||
||----------------------|--------------------||
||--12-12---11-11---7-7-|-(7)-7-7-7-7-7-7-7--||
||o--9--9----7--7---5-5-|-(5)-5-5-5-5-5-5-5-o||
||---9--9----7--7---5-5-|-(5)-5-5-5-5-5-5-5--||


D/B A D5/G
Gtr IV
E E E E E E E E E E Q E E Q
|-----------------------|------------------9s==10s==9-------|
|-----------------12-10-|-----10-----------x----------------|
|------------------x--x-|------x-----------6s===7s==6-------|
|---------------0--9--7-|------7----------------------------|
|--5--4-0--7--9---------|-----------------------------------|
|-----------------------|-----------------------------------|
|
| Gtrs II, III
| E E E E E E E E +E S S S S S S S S S S S S S S
|-----------------------|-----------------------------------|
|-----------------------|-----------------------------------|
|-----------------------|-----------------------------------|
|-12-12---11-11----7--7-|-(7)--x-x-x-x-x-x-x-x--x-x-x-x-x-x-|
|--9--9----7--7----5--5-|-(5)--x-x-x-x-x-x-x-x--x-x-x-x-x-x-|
|--9--9----7--7----5--5-|-(5)--x-x-x-x-x-x-x-x--x-x-x-x-x-x-|


D/B A Dsus2/G
E E E E E E E E E E Q E E Q
|-----------------------|------------9s10s9---|
|-----------------12-10-|-----10-----x--------|
|------------------x--x-|------x-----6s=7s6---|
|---------------0--9--7-|------7--------------|
|--5--4-0--7--9---------|---------------------|
|-----------------------|---------------------|
|
| PM| PM
| E E E E E E E E +E E E E E E E E
|------------------5--5-|------5-----5----5-5-|
|------------------5--5-|------5-----5----5-5-|
|------------------7--7-|------7-----7----7-7-|
|-12-12---11-11----7--7-|-(7)--7-----7----7-7-|
|--9--9----7--7----5--5-|-(5)--5-5-5-5--5-5-5-|
|--9--9----7--7----5--5-|-(5)--5-5-5-5--5-5-5-|


Gtr IV
PM----------------------------------------|
E E E E E E E E E E E E E E E E
||----------------------|------------------------||
||o---------10---(10)---|-----------10---(10)---o||
||----7---7----7------7-|-----7---7----7------7--||
||--9---9----------9----|-(9)---9----------9-----||
||o---------------------|-----------------------o||
||----------------------|------------------------||


Interlude
Bm A
Gtr IV
PM--------------------------------------
E E E E E E E E E E E E E E E E
||---------------------|-------------------|
||o--------------------|-------------------|
||------------7------7-|-----------6-----6-|
||--9--9-9-9-----9-9---|-(9)-7-7-7---7-7---|
||o--------------------|-------------------|
||---------------------|-------------------|
|
| Gtr I
| Q. E +H +W
||---------------------|-------------------|
||o-7------------------|-------------------|
||---------7-(7)-------|-(7)---------------|
||---------------------|-------------------|
||o--------------------|-------------------|
||---------------------|-------------------|


G5 D5/A
---------------------------------------|
E E E E E E E E E E E E S S E E E
|-------------------|-----------------------||
|-------------------|----------------------o||
|-----------7-----7-|-----------6h7p6---6---||
|-5--5-5-5----5-5---|-(5)-7-7-7-------7-----||
|-------------------|----------------------o||
|-------------------|-----------------------||
|
| Q. Q. Q +W
|-------------------|-----------------------||
|-7-----------------|----------------------o||
|--------7----------|-----------------------||
|---------------0---|-(0)-------------------||
|-------------------|----------------------o||
|-------------------|-----------------------||


Bm A
Gtr IV
PM--------------------------------------
E E E E E E E E E E E E E E E E
|--------------------|-------------------|
|--------------------|-------------------|
|-----------7------7-|-----------6-----6-|
|-9--9-9-9-----9-9---|-(9)-7-7-7---7-7---|
|--------------------|-------------------|
|--------------------|-------------------|
|
| Gtr I
| Q. E +H +W
|--------------------|-------------------|
|-7------------------|-------------------|
|--------7-(7)-------|-(7)---------------|
|--------------------|-------------------|
|--------------------|-------------------|
|--------------------|-------------------|
|
| Gtr V
| E E q E E q E E q E E q
|--------------------|-------------------|
|--------------------|-------------------|
|-7--7-7----7--7-7---|--7--7-7---7-7-7---|
|-x--x-x----x--x-x---|--x--x-x---x-x-x---|
|-5--5-5----5--5-5---|--5--5-5---5-5-5---|
|--------------------|-------------------|


G5 D5/A
---------------------------------------|
E E E E E E E E E E E E S S E E E
|-------------------|---------------------|
|-------------------|---------------------|
|-----------7-----7-|-----------6h7p6---6-|
|-5--5-5-5----5-5---|-(5)-7-7-7-------7---|
|-------------------|---------------------|
|-------------------|---------------------|
|
| Q. Q. Q +W
|-------------------|---------------------|
|-7-----------------|---------------------|
|--------7----------|---------------------|
|---------------0---|-(0)-----------------|
|-------------------|---------------------|
|-------------------|---------------------|
|
| E E q E E q E E q E E q
|-------------------|---------------------|
|-------------------|---------------------|
|-7--7-7----7-7-7---|--6--6-6---6---6-6---|
|-x--x-x----x-x-x---|--x--x-x---x---x-x---|
|-5--5-5----5-5-5---|--4--4-4---4---4-4---|
|-------------------|---------------------|


Bm A
Gtr IV
PM--------------------------------------
E E E E E E E E E E E E E E E E
|--------------------|-------------------|
|--------------------|-------------------|
|-----------7------7-|-----------6-----6-|
|-9--9-9-9-----9-9---|-(9)-7-7-7---7-7---|
|--------------------|-------------------|
|--------------------|-------------------|
|
| Gtr I
| Q. E +H +W
|--------------------|-------------------|
|-7------------------|-------------------|
|--------7-(7)-------|-(7)---------------|
|--------------------|-------------------|
|--------------------|-------------------|
|--------------------|-------------------|
|
| Gtr V
| E E E E E E E E E E E E E E E E
|--------------------|-------------------|
|--------------------|-------------------|
|-7--7-7----7--7-7---|--7--7-7-7-7-7-7-7-|
|-x--x-x----x--x-x---|--x--x-x-x-x-x-x-x-|
|-5--5-5-0--5--5-5-0-|--5--5-5-5-5-5-5-5-|
|--------------------|-------------------|


G5
-------------------------------------|
E E E E E E E E E E E E E E E E
|-------------------|--------------------|
|-------------------|--------------------|
|-7------7------7---|-----7-----7---7----|
|----5-5----5-5---5-|--5----5-5---5---5--|
|-------------------|--------------------|
|-------------------|--------------------|
|
| Q. Q. Q +W
|-------------------|--------------------|
|-7-----------------|--------------------|
|--------7----------|--------------------|
|---------------0---|-(0)----------------|
|-------------------|--------------------|
|-------------------|--------------------|
|
| E E E E E E E E E E E E E E E E
|-------------------|--------------------|
|-------------------|--------------------|
|-7--7-7-7--7-7-7-7-|--7--7-7-7-7-7-7-7--|
|-x--x-x-x--x-x-x-x-|--x--x-x-x-x-x-x-x--|
|-5--5-5-5--5-5-5-5-|--5--5-5-5-5-5-5-5--|
|-------------------|--------------------|


D5/A
E E E E E E E E E E E E E E E E
|-------------------------|-------------------------||
|-------------------------|-------------------------||
|--6--------6--------6----|-----6--------6-----6----||
|-----7--7-----7--7-----7-|--7-----7--7-----7-----7-||
|-------------------------|-------------------------||
|-------------------------|-------------------------||
|
| E E E E E E E E E E E E E E E E
|-------------------------|-------------------------||
|-------------------------|-------------------------||
|-------------------------|-------------------------||
|-11-11-11-11-11-11-11-11-|-11-11-11-11-11-11-11-11-||
|--7--7--7--7--7--7--7--7-|--7--7--7--7--7--7--7--7-||
|--7--7--7--7--7--7--7--7-|--7--7--7--7--7--7--7--7-||
|
| E E E E E E E E E E E E E E E E
|-------------------------|-------------------------||
|-------------------------|-------------------------||
|--6--6--6--6--6--6--6--6-|--6--6--6--6--6--6--6--6-||
|--x--x--x--x--x--x--x--x-|--x--x--x--x--x--x--x--x-||
|--4--4--4--4--4--4--4--4-|--4--4--4--4--4--4--4--4-||
|-------------------------|-------------------------||


Chorus
D5/A
Gtr VI
e e e e e e e e e e e e e e e e
| | | | | | | | | | | | | | | |
/ / / / / / / / / / / / / / / /

Gtr I
Q Q Q Q Q Q Q Q
|---------5---5----|--------------------|
|---------8---8----|---------10---10----|
|---------7---7----|----------9----9----|
|-5---5---5---5/---|-7---7----7----7/---|
|-5---5---5---5/---|-7---7----7----7/---|
|-5---5---5---5/---|-7---7----7----7/---|


e e e e e e e e e e e e e e e e
| | | | | | | | | | | | | | | |
/ / / / / / / / / / / / / / / /

Q Q Q E E E E Q Q E E
|-------------------|--------------------|
|---------10-----10-|---10-----10-----10-|
|---------11-----11-|---11-----11-----11-|
|-9---9----9---9--9-|-9--9-9----9---9--9-|
|-9---9----9---9--9-|-9--9-9----9---9--9-|
|-9---9----9---9--9-|-9--9-9----9---9--9-|


D5/A
Gtr VI
e e e e e e e e e e e e e e e e
| | | | | | | | | | | | | | | |
/ / / / / / / / / / / / / / / /

Gtr I
Q Q Q Q Q Q Q Q
|---------5---5----|----------------------|
|---------8---8----|-----------10---10----|
|---------7---7----|------------9----9----|
|-5---5---5---5/---|--7----7----7----7/---|
|-5---5---5---5/---|--7----7----7----7/---|
|-5---5---5---5/---|--7----7----7----7/---|
|
| Gtr V
| Q Q E E Q +Q Q E E Q
|------------------|----------------------|
|---------7--------|------------7---------|
|-7---------7------|--------------7-------|
|-----7-------7----|-(7)---7---------7----|
|------------------|----------------------|
|------------------|----------------------|


D.S.S. al Dbl. Coda
e e e e e e e e e e e e e e e e
| | | | | | | | | | | | | | | |
/ / / / / / / / / / / / / / / /

Q Q Q E E E E Q Q E E
|-------------------|----------------------||
|---------10-----10-|-----10-----10-----10-||
|---------11-----11-|-----11-----11-----11-||
|-9---9----9---9--9-|--9---9-9----9---9--9-||
|-9---9----9---9--9-|--9---9-9----9---9--9-||
|-9---9----9---9--9-|--9---9-9----9---9--9-||
|
| Q Q E E Q +Q Q E E Q
|-------------------|----------------------||
|----------7--------|-------------7--------||
|-7----------7------|---------------7------||
|-----7--------7----|-(7)----7--------7----||
|-------------------|----------------------||
|-------------------|----------------------||
|
| Gtrs II, III
| W H H
|-------------------|----------------------||
|-------------------|-------------0--------||
|-------------------|-------------6--------||
|-------------------|----------------------||
|-------------------|----------------------||
|-------------------|----------------------||


&&
B5
Gtrs II, III
PM------|
E E E E E E E E Q Q Q Q
|-----------------|--------------||
|-----------------|--------------||
|-----------------|--------------||
|---------9-9-9-9-|--------------||
|-9-9-9-9-9-9-9-9-|-xs=xs=xs=x\--||
|-9-9-9-9-9-9-9-9-|-xs=xs=xs=x\--||


Out-Chorus
G5 E5/A
E E E E E E E E E E E E E E E E
|-----------------|-----------------|
|-----------------|-----------------|
|-7-7-7-7-7-7-7-7-|-9-9-9-9-9-9-9-9-|
|-5-5-5-5-5-5-5-5-|-9-9-9-9-9-9-9-9-|
|-5-5-5-5-5-5-5-5-|-7-7-7-7-7-7-7-7-|
|-5-5-5-5-5-5-5-5-|-7-7-7-7-7-7-7-7-|


Dadd9/B
E E E E E E E E E E E E E E E E
|-------------------------|-------------------------|
|-------------------------|-------------------------|
|-11-11-11-11-11-11-11-11-|-11-11-11-11-11-11-11-11-|
|-12-12-12-12-12-12-12-12-|-12-12-12-12-12-12-12-12-|
|--9--9--9--9--9--9--9--9-|--9--9--9--9--9--9--9--9-|
|--9--9--9--9--9--9--9--9-|--9--9--9--9--9--9--9--9-|


G5 E5/A
E E E E E E E E E E E E E E E E
|-----------------|-----------------||
|-----------------|-----------------||
|-7-7-7-7-7-7-7-7-|-9-9-9-9-9-9-9-9-||
|-5-5-5-5-5-5-5-5-|-9-9-9-9-9-9-9-9-||
|-5-5-5-5-5-5-5-5-|-7-7-7-7-7-7-7-7-||
|-5-5-5-5-5-5-5-5-|-7-7-7-7-7-7-7-7-||


Outro
B5
Gtrs II, III
E E q E E q E E q E E E E
||----------------------|----------------------|
||o---------------------|----------------------|
||----------------------|----------------------|
||---9--9--9---9--9--9--|-----9--9---9--9--9---|
||o--9--9--9---9--9--9--|-----9--9---9--9--9-0-|
||---9--9--9---9--9--9--|-----9--9---9--9--9-0-|
|
| Gtr IV
| E E q E E q E E q E E q
||----------------------|----------------------|
||o-15-15-15--15-15-15--|-14-14-14--14-14-14---|
||--14-14-14--14-14-14--|-14-14-14--14-14-14---|
||--12-12-12--12-12-12--|-12-12-12--12-12-12---|
||o---------------------|----------------------|
||----------------------|----------------------|


G5 A5
E E q E E q E E q E E E E
|---------------------|-----------------------||
|---------------------|----------------------o||
|---------------------|-----------------------||
|--5--5--5---5--5--5--|-----5--5---7--7--7-7--||
|--5--5--5---5--5--5--|-----5--5---7--7--7-7-o||
|--5--5--5---5--5--5--|-----5--5---7--7--7-7--||
|
| E E q E E q E E q E E q
|---------------------|-----------------------||
|---------------------|----------------------o||
|-14-14-14--14-14-14--|-14-14-14--14-14-14----||
|-12-12-12--12-12-12--|-12-12-12--12-12-12----||
|-12-12-12--12-12-12--|-12-12-12--12-12-12---o||
|---------------------|-----------------------||


B5 A5 G5
E E E E E E E E +W
|---------------------|---------|
|---------------------|---------|
|---------------------|---------|
|--9--9---7-7----5--5-|--(5)----|
|--9--9---7-7----5--5-|--(5)----|
|--9--9---7-7----5--5-|--(5)----|
|
| >
| E E E E E E E E +W
|-10-10---9-9---------|---------|
|--x--x---x-x---10-10-|-(10)----|
|--7--7---6-6----x--x-|---------|
|----------------7--7-|--(7)----|
|---------------------|---------|
|---------------------|---------|


+W +W +W +W
|------------|------------|------------|------------|
|------------|------------|------------|------------|
|------------|------------|------------|------------|
|-(5)--------|-(5)--------|-(5)--------|-(5)--------|
|-(5)--------|-(5)--------|-(5)--------|-(5)--------|
|-(5)--------|-(5)--------|-(5)--------|-(5)--------|


+W +W +W +W +W
|------------|------------|------------|------------|--------*|
|------------|------------|------------|------------|--------*|
|------------|------------|------------|------------|--------*|
|-(5)--------|-(5)--------|-(5)--------|-(5)--------|-(5)----*|
|-(5)--------|-(5)--------|-(5)--------|-(5)--------|-(5)----*|
|-(5)--------|-(5)--------|-(5)--------|-(5)--------|-(5)----*|


Duration Legend
---------------
W - whole; H - half; Q - quarter; E - 8th; S - 16th; T - 32nd; X - 64th; a - acciaccatura
+ - note tied to previous; . - note dotted; .. - note double dotted
Uncapitalized letters represent notes that are staccato (1/2 duration)
Irregular groupings are notated above the duration line
Duration letters will always appear directly above the note/fret number it represents the
duration for. Duration letters with no fret number below them represent rests. Multi-
bar rests are notated in the form Wxn, where n is the number of bars to rest for. Low
melody durations appear below the staff

Tablature Legend
----------------
h - hammer-on
p - pull-off
b - bend
pb - pre-bend
r - bend release (if no number after the r, then release immediately)
/\ - slide into or out of (from/to "nowhere")
s - legato slide
S - shift slide
- natural harmonic
[n] - artificial harmonic
n(n) - tapped harmonic
~ - vibrato
tr - trill
T - tap
TP - trem. picking
PM - palm muting
\n/ - tremolo bar dip; n = amount to dip
\n - tremolo bar down
n/ - tremolo bar up
/n\ - tremolo bar inverted dip
= - hold bend; also acts as connecting device for hammers/pulls
- volume swell (louder/softer)
x - on rhythm slash represents muted slash
o - on rhythm slash represents single note slash

Misc Legend
-----------
| - bar
|| - double bar
||o - repeat start
o|| - repeat end
*| - double bar (ending)
: - bar (freetime)
$ - Segno
& - Coda
Tempo markers - = BPM(8/16=s8/s16), where s8 = swing 8ths, s16 = swing 16ths
Tunning: Standard (E A D G B e)
Until the Day I Die (acoustic) by Story of the year

tabbed by: factor13x
email: iwildcatbaseball@aol.com

Hey everyone I noticed that nobody has ever put up a complete acoustic
version of this tab so I figured I'd give it a go. Let me know how it is. I took parts
are right from different tabs and I watched the fingering from their live aol sessions
on youtube.

Tuning: Drop D

Intro:

Guitar 1
e|------------------------------------------------------|
B|------------------------------------------------------|
G|--------------14-------------------------14-----------| X 10
D|-----12----12----12----12-------12----12----12----12--|
A|--14----14----------14-------------14----------14-----|
D|------------------------------------------------------|
pm............. ....................... ........

Guitar 2 (just figure the strumming pattern its really simple)
e|-----------------|
B|-----------------|
G|--7-----9----11--|
D|--5-----7-----9--| X4
A|--5-----7-----9--|
D|--5-----7-----9--|

Guitar 1 X 2
e|------------------------------------------------------------------------------------------|
B|---15--15-15-15--15-15-15---14-14-14--14-14-14--------------------------------------------|
G|---14--14-14-14--14-14-14---14-14-14--14-14-14---14-14-14--14-14-14--14-14-14--14-14-14---|
D|---12--12-12-12--12-12-12---12-12-12--12-12-12---12-12-12--12-12-12--12-12-12--12-12-12---|
A|-------------------------------------------------12-12-12--12-12-12--12-12-12--12-12-12---|
D|------------------------------------------------------------------------------------------|

Guitar 2
e|-----------------------------------------------------------------|
B|-----------------------------------------------------------------|
G|-----------------------------------------------------------------|
D|--12-121212-121212--111111-111111---7-7-7--7-7-7--7-7-7--7-7-7---|
A|---9--9-9-9--9-9-9---9-9-9--9-9-9---5-5-5--5-5-5--5-5-5--5-5-5---|
D|---9--9-9-9--9-9-9---9-9-9--9-9-9---5-5-5--5-5-5--5-5-5--5-5-5---|

Verse:

Guitar 1 X 3
e|-----------------------------------------------------------------------------------------------|
B|-----------------------------------------------------------------------------------------------|
G|--------------14--------------------14-----------------------14--------------------16----------|
D|-----12----12----12----12--12----12----12----12-----12----12----12----12--14-11-14----14-11-14-|
A|--14----14----------14--------14----------14-----14----14----------14--------------------------|
D|-----------------------------------------------------------------------------------------------|
pm............. .................. .................... .................. .........
part 2 X 1
e|------------------------------------------------------------------------------------------------|
B|------------------------------------------------------------------------------------------------|
G|--------------14--------------------14-----------------------14-14-14-14------------14-14-14-14-|
D|-----12----12----12----12--12----12----12----12-----12----12---------------12----12-------------|
A|--14----14----------14--------14----------14-----14----14---------------14----14----------------|
D|------------------------------------------------------------------------------------------------|

Guitar 2 (come in after guitar one plays verse riff x4 then stop and come in again after
1 plays riff x1 and play x2 leaving the last two chords unmuted)
e|-----------------------------------------|
B|-----------------------------------------|
G|---------------------77777777------------|
D|-99999999--55555555--77777777--77777777--|
A|-99999999--55555555--55555555--77777777--|
D|-99999999--55555555------------77777777--|
pm.......................................

Chorus:

Guitar 1
e|------------------------------|
B|----------------151515141414--|
G|----------------141414141414--|
D|--5-5-5--7-7-7--121212121212--| X 2
A|--5-5-5--7-7-7----------------|
D|--5-5-5--7-7-7----------------|

e|-----------------------------------------------------------------------|
B|---------------------------------------15-15h17p15-15h17p15-15h17p15---|
G|---14-14-14-14---14-14-14-14-------------------------------------------|
D|-----------------------------12----12----------------------------------|
A|--------------------------------14-------------------------------------|
D|-----------------------------------------------------------------------|

e|----------------------------------------------------------------------------------------------|
B|----------------------------------------------------------------------------------------------|
G|-14-14-14-14-----------14-14-14-14-----------14-14-14-14--------------14-14-14-14-14-14-14-14-|
D|-------------12-11-----------------12-11-----------------12-11--------------------------------|
A|-------------------12--------------------12--------------------12-----------------------------|
D|----------------------------------------------------------------------------------------------|

Guitar 2
e|------------------------------| |----------------|
B|------------------------------| |----------------|
G|------------------------------| |----------------|
D|--5-5-5--7-7-7--121212111111--| X 4 |--5-5-5--7-7-7--|
A|--5-5-5--7-7-7---9-9-9-9-9-9--| |--5-5-5--7-7-7--|
D|--5-5-5--7-7-7---9-9-9-9-9-9--| |--5-5-5--7-7-7--|

Verse:

Guitar 1 X 3
e|-----------------------------------------------------------------------------------------------|
B|-----------------------------------------------------------------------------------------------|
G|--------------14--------------------14-----------------------14--------------------16----------|
D|-----12----12----12----12--12----12----12----12-----12----12----12----12--14-11-14----14-11-14-|
A|--14----14----------14--------14----------14-----14----14----------14--------------------------|
D|-----------------------------------------------------------------------------------------------|
pm............. .................. .................... .................. .........
part 2 X 1
e|------------------------------------------------------------------------------------------------|
B|------------------------------------------------------------------------------------------------|
G|--------------14--------------------14-----------------------14-14-14-14------------14-14-14-14-|
D|-----12----12----12----12--12----12----12----12-----12----12---------------12----12-------------|
A|--14----14----------14--------14----------14-----14----14---------------14----14----------------|
D|------------------------------------------------------------------------------------------------|

Guitar 2 (come in after guitar one plays verse riff x4 then stop and come in again after
1 plays riff x1 and play x2 leaving the last two chords unmuted)
e|-----------------------------------------|
B|-----------------------------------------|
G|---------------------77777777------------|
D|-99999999--55555555--77777777--77777777--|
A|-99999999--55555555--55555555--77777777--|
D|-99999999--55555555------------77777777--|
pm.......................................

Chorus:

Guitar 1
e|------------------------------|
B|----------------151515141414--|
G|----------------141414141414--|
D|--5-5-5--7-7-7--121212121212--| X 2
A|--5-5-5--7-7-7----------------|
D|--5-5-5--7-7-7----------------|

e|-----------------------------------------------------------------------|
B|---------------------------------------15-15h17p15-15h17p15-15h17p15---|
G|---14-14-14-14---14-14-14-14-------------------------------------------|
D|-----------------------------12----12----------------------------------|
A|--------------------------------14-------------------------------------|
D|-----------------------------------------------------------------------|

e|----------------------------------------------------------------------------------------------|
B|----------------------------------------------------------------------------------------------|
G|-14-14-14-14-----------14-14-14-14-----------14-14-14-14--------------14-14-14-14-14-14-14-14-|
D|-------------12-11-----------------12-11-----------------12-11--------------------------------|
A|-------------------12--------------------12--------------------12-----------------------------|
D|----------------------------------------------------------------------------------------------|

Guitar 2
e|------------------------------| |----------------|
B|------------------------------| |----------------|
G|------------------------------| |----------------|
D|--5-5-5--7-7-7--121212111111--| X 4 |--5-5-5--7-7-7--|
A|--5-5-5--7-7-7---9-9-9-9-9-9--| |--5-5-5--7-7-7--|
D|--5-5-5--7-7-7---9-9-9-9-9-9--| |--5-5-5--7-7-7--|

Bridge:

Guitar 1 & 2
e|----------------------------------|
B|----------------------------------|
G|----------------------------------|
D|--99-77-55-5-5-5--99-77-55-5-5-5--| X 2
A|--99-77-55-5-5-5--99-77-55-5-5-5--|
D|--99-77-55-5-5-5--99-77-55-5-5-5--|

Verse 3

Guitar 1 X 3
e|-----------------------------------------------------------------------------------------------|
B|-----------------------------------------------------------------------------------------------|
G|--------------14--------------------14-----------------------14--------------------16----------|
D|-----12----12----12----12--12----12----12----12-----12----12----12----12--14-11-14----14-11-14-|
A|--14----14----------14--------14----------14-----14----14----------14--------------------------|
D|-----------------------------------------------------------------------------------------------|
pm............. .................. .................... .................. .........
part 2 X 1
e|------------------------------------------------------------------------------------------------|
B|------------------------------------------------------------------------------------------------|
G|--------------14--------------------14-----------------------14-14-14-14------------14-14-14-14-|
D|-----12----12----12----12--12----12----12----12-----12----12---------------12----12-------------|
A|--14----14----------14--------14----------14-----14----14---------------14----14----------------|
D|------------------------------------------------------------------------------------------------|

Guitar 2
e|------------------------------------------------------------------------------------------------|
B|------------------------------------------------------------------------------------------------|
G|------------------------------------------------------------------------------------------------|
D|------------12-------12-----------12-------12--------------12------12-------------11h12p11----11|
A|14-14-14-14----14-14-----12-12-12----12-12-----10-10-10-10----10-10-----12-12-12----------12----|
D|------------------------------------------------------------------------------------------------|

e|-------------------------------------------------------------------------------|
B|-------------------------------------------------------------------------------|
G|-------------------------------------------------------------------------------|
D|---------------12-------12-----------12-------12--------------12---------------|
A|---14-14-14-14----14-14-----12-12-12----12-12-----10-10-10-10----10-10-10-12---|
D|-------------------------------------------------------------------------------|

Chorus: (starts out with strumming each chord once and letting it ring) X 2

Guitar 1
e|------------------------------|
B|----------------151515141414--|
G|----------------141414141414--|
D|--5-5-5--7-7-7--121212121212--| X 2
A|--5-5-5--7-7-7----------------|
D|--5-5-5--7-7-7----------------|

e|-----------------------------------------------------------------------|
B|---------------------------------------15-15h17p15-15h17p15-15h17p15---|
G|---14-14-14-14---14-14-14-14-------------------------------------------|
D|-----------------------------12----12----------------------------------|
A|--------------------------------14-------------------------------------|
D|-----------------------------------------------------------------------|

e|----------------------------------------------------------------------------------------------|
B|----------------------------------------------------------------------------------------------|
G|-14-14-14-14-----------14-14-14-14-----------14-14-14-14--------------14-14-14-14-14-14-14-14-|
D|-------------12-11-----------------12-11-----------------12-11--------------------------------|
A|-------------------12--------------------12--------------------12-----------------------------|
D|----------------------------------------------------------------------------------------------|

Guitar 2
e|------------------------------| |----------------|
B|------------------------------| |----------------|
G|------------------------------| |----------------|
D|--5-5-5--7-7-7--121212111111--| X 4 |--5-5-5--7-7-7--|
A|--5-5-5--7-7-7---9-9-9-9-9-9--| |--5-5-5--7-7-7--|
D|--5-5-5--7-7-7---9-9-9-9-9-9--| |--5-5-5--7-7-7--|

Outro:

Guitar 1 X 2
e|------------------------------------------------------------------------------------------|
B|---15--15-15-15--15-15-15---14-14-14--14-14-14--------------------------------------------|
G|---14--14-14-14--14-14-14---14-14-14--14-14-14---14-14-14--14-14-14--14-14-14--14-14-14---|
D|---12--12-12-12--12-12-12---12-12-12--12-12-12---12-12-12--12-12-12--12-12-12--12-12-12---|
A|-------------------------------------------------12-12-12--12-12-12--12-12-12--12-12-12---|
D|------------------------------------------------------------------------------------------|

Guitar 2
e|-----------------------------------------------------------------|
B|-----------------------------------------------------------------|
G|-----------------------------------------------------------------|
D|--12-121212-121212--111111-111111---7-7-7--7-7-7--7-7-7--7-7-7---|
A|---9--9-9-9--9-9-9---9-9-9--9-9-9---5-5-5--5-5-5--5-5-5--5-5-5---|
D|---9--9-9-9--9-9-9---9-9-9--9-9-9---5-5-5--5-5-5--5-5-5--5-5-5---|

End with

Guitar 1 & 2
e|------------------|
B|------------------|
G|------------------|
D|--99-77-55-5-5-5--|
A|--99-77-55-5-5-5--|
D|--99-77-55-5-5-5--|
Song info
Until The Day I Die
Story of the Year
2001
  • Rock
  • Alternative Rock
  • Pop Rock
Similar songs
Fly - U2
Just Like Paradise - David Lee Roth
Say You Love Me - Fleetwood Mac
Gonna Fly Now - Bill Conti

Hi! Hope you enjoy backing track experience.
If you want to help us in the development of the project, feel free to donate!