Black Diamond - Stratovarius
00:00 / 00:00
Tabs and lyrics
Tunning: Standard (E A D G B e)
BLACK DIAMOND
ARTIST: STRATOVARIUS
ALBUM: VISIONS
THATS IT WITH ALMOST ALL THE SOLO PART

well... this is my last corrected black diamond version yea if you
find any mistake .error ,sin or whatever you want, please mail me
at monarch@mail.internet.com.mx or by this page
thanx , and enjoy it!! because it takes me a lot of time
Luis Jimenex Torres MEXICO CITY

[riff1] intro & corus
e|--------------------------------|------------------------------------------------------|
B|--------------------------------|------------------------------------------------------|
G|--7---------3--(3)-----5-----7--|------------------------------------------------------|
D|--7---------3--(3)-----5-----7--|------------------------------------------------------|
A|--5---------1--(1)-----3-----5--|---5-5-5-5-5-5-5-5-5-5-5-5-5-5-5-5-3-3-1-1-1-1-1-1-1--|
E|--------------------------------|------------------------------------------------------|

Again, i see
e|----------------------------------------------------------------------------------------------------|
B|----------------------------------------------------------------------------------------------------|
G|-------------------------------------------------------------------------------------------------7--|
D|-------------------------------------------------------------------------------------------------7--|
A|1-1-1-1-1-1-1-3-3-5-5-1-1-3-3-3-3-3-3-3-3-3-3-3-3-3-3-0-1-1-3-3-5-5-5-5-5-5-5-5-5-5-5-5-5-5-5-5--5--|
E|----------------------------------------------------------------------------------------------------|

e|-----------------------------------------|
B|-----------------------------------------|
G|--------3------3-----------3------3------|
D|-2------3------3----2------3------3------|
A|-1-1111-1-1111-1-11-1-1111-1-1111-1-11---|
E|-----------------------------------------|

Inviting me...
e|-------------------------------------------------------------|
B|-------------------------------------------------------------|
G|-5-----3-----5-----2----6-6-6-6------------------------------|
D|-5-----3-----5-----2-----------8-8-8-8-77--------------------|
A|-3-----1-----3-----0---------------------9-9-9--8-8-8-8------|
E|-------------------------------------------------------------|

[solo] hehe..almost all..im not a virtuosly
h p v v v h p v
e|-------------------------------------------------------------|
B|--15-17--151715--15-18-17-15--------15-17--151715--15-18-17--|
G|-14-------------------------14-12--14------------------------|
D|-------------------------------------------------------------|
A|-------------------------------------------------------------|
E|-------------------------------------------------------------|

v v
h p h p
e|-18-17-15---17-151715----------------18-17-18-17-15---------------|
B|---------------------18-17-15----------------------18-17-15-------|
G|-----------------------------17-15-14----------------------17-15--|
D|------------------------------------------------------------------|
A|------------------------------------------------------------------|
E|------------------------------------------------------------------|

v p p
e|----15-17-18--181715--p-p--------------|---------------------|
B|-17-----------------181715--p-p--------|---------------------|
G|--------------------------171514--p p--|-7--2--7--2--3--2--7-|
D|--------------------------------171514-|-7--2--7--2--3--2--7-|
A|---------------------------------------|-5--0--5--0--1--0--5-|
E|---------------------------------------|---------------------|

e|-----------------------------------------------------------------|
B|-5-000-7-000-8-000-5-000-7-000-8-000-10-000-7-000-12-000-10-000--|
G|-----------------------------------------------------------------|
D|-----------------------------------------------------------------|
A|-----------------------------------------------------------------|
E|-----------------------------------------------------------------|

bup&dn
e|---------------------------------------------------------------|
B|-8-000-7-000-8-000-7-000-5-000-4-000-5/8-8-8/12-12-12/17-17-19-|
G|---------------------------------------------------------------|
D|---------------------------------------------------------------|
A|---------------------------------------------------------------|
E|---------------------------------------------------------------|

e|------------------------------17/19/20/19/17/19/17--|
B|-19/20/19/17---------17/19/20-----------------------|
G|------------19-17/19--------------------------------|
D|----------------------------------------------------|
A|----------------------------------------------------|
E|----------------------------------------------------|

v h p v v v v b
e|-17--15-17-18-171817-15--18-----------------------------15-18-17-17|
B|---18------------------18----18-17--15-17--15-13---17-18-----------|
G|-------------------------------------------------------------------|
D|-------------------------------------------------------------------|
A|-------------------------------------------------------------------|
E|-------------------------------------------------------------------|

v
e|-18-17-15--17-15-----15---------------------|
B|---------18-----18-17--18-17-15-18-17--15---|
G|-------------------------------------18-----|
D|--------------------------------------------|
A|--------------------------------------------|
E|--------------------------------------------|

************************************

| (n) Ghost note
| p Pull-off
| / Slide up

************************************
Song info
Black Diamond
Stratovarius
0
  • Rock
  • Heavy Metal
Alternative tracks
Similar songs
Roots - Sepultura
Another Day - Dream Theater
Deceiver - Judas Priest
Unidos Por El Rock - Angeles Del Infierno
Diary Of A Madman - Ozzy Osbourne

Hi! Hope you enjoy backing track experience.
If you want to help us in the development of the project, feel free to donate!