Hunting High And Low - Stratovarius
00:00 / 00:00
Tabs and lyrics
Tunning: Standard (E A D G B e)
Artist: Stratovarius
Album: Infinite
Song: Hunting High and Low
Tabbed by Horach

Guitars tuned 1/2 step down

[Intro]
(gtr 1&synth) (repeat 4 times)
D#|---------------------------------|---------------------------------|
A#|---------------------------------|-----------------8---------------|
F#|-----7---9---7-------7---9---7---|-----7---9---10------10--9---7---|
C#|---7---7---7---7---7---7---7---7-|---7---7---7---7---7---7---7---7-|
G#|---------------------------------|---------------------------------|
D#|---------------------------------|---------------------------------|

(gtr 2) (repeat 2 times)
D#|---------------------------------|---------------------------------|
A#|---------------------------------|---------------------------------|
F#|---------------------------------|---------------------------------|
C#|-7---------------------------7---|-3---------------------------3---|
G#|-5-5-5-5-5-5-5-5-5-5-5-5-5-5-5---|-1-1-1-1-1-1-1-1-1-1-1-1-1-1-1---|
D#|---------------------------------|---------------------------------|

D#|---------------------------------|---------------------------------|
A#|---------------------------------|---------------------------------|
F#|---------------------------------|---------------------------------|
C#|-5---------------------------5---|-----------------2---------------|
G#|-3-3-3-3-3-3-3-3-3-3-3-3-3-3-3---|-5---------------0-0-0-0-0-0-0-0-|
D#|---------------------------------|-3-3-3-3-3-3-3-3-----------------|

(gtr 1&synth)
D#|---------------------------------|---------------------------------|
A#|-----------------8-------11--10--|-10------------------------------|
F#|-----7---9---10------10----------|---------------------------------|
C#|---7---7---7---7---7---7---7---7-|---------------------------------|
G#|---------------------------------|---------------------------------|
D#|---------------------------------|---------------------------------|

(gtr 2)
D#|---------------------------------|---------------------------------|
A#|---------------------------------|---------------------------------|
F#|---------------------------------|---------------------------------|
C#|-3---------------2---------------|-7---------------7-----7---------|
G#|-1-1-1-1-1-1-1-1-4-4-4-4-4-4-4-4-|-5-5-5-5-5-5-5-5-5-5-5-5-5-5-5-5-|
D#|---------------------------------|---------------------------------|

[Verse]
(clean gtr) (2 times)
D#|----1------|-----0------|----1-------|-----0------|
A#|---3-------|----1-------|---3--------|----1-------|
F#|--2--------|---0--------|--3---------|---0--------|
C#|-0---------|--0---------|-0----------|--0---------|
G#|-----------|-3----------|------------|-3----------|
D#|-----------|------------|------------|------------|

[Bridge]
/w distortion
D#|-----|-----|-----|-----|-----|-----|-----|-------------------------|
A#|-----|-----|-----|-----|-----|-----|-----|-------------------------|
F#|-----|-----|-----|-----|-----|-----|-----|-------------------------|
C#|---3-|-5---|---3-|-5---|-7---|-3-5-|-3---|-5---------------5-------|
G#|-3-1-|-3---|-3-1-|-3---|-5-3-|-1-3-|-1---|-3-3-3-3-3-3-3-3-3-------|
D#|-1---|-----|-1---|-----|---1-|-----|-----|-------------------------|

[Chorus]
(2 times)
D#|-----|-----|-----|-----|
A#|-----|-----|-----|-----|
F#|-----|-----|-----|-----|
C#|-7-3-|-5-2-|-3-0-|-5-2-|
G#|-5-1-|-3-0-|-1-2-|-3-4-|
D#|-----|-----|-----|-----|

[Interlude]
D#|---------------------------------|---------------------------------|
A#|---------------------------------|-----------------8---------------|
F#|-----7---9---7-------7---9---7---|-----7---9---10------10--9---7---|
C#|---7---7---7---7---7---7---7---7-|---7---7---7---7---7---7---7---7-|
G#|---------------------------------|---------------------------------|
D#|---------------------------------|---------------------------------|

[Verse]
clean gtr (2 times)
D#|----1------|-----0------|----1-------|-----0------|
A#|---3-------|----1-------|---3--------|----1-------|
F#|--2--------|---0--------|--3---------|---0--------|
C#|-0---------|--0---------|-0----------|--0---------|
G#|-----------|-3----------|------------|-3----------|
D#|-----------|------------|------------|------------|

[Bridge]
/w distortion
D#|-----|-----|-----|-----|-----|-----|-----|-------------------------|
A#|-----|-----|-----|-----|-----|-----|-----|-------------------------|
F#|-----|-----|-----|-----|-----|-----|-----|-------------------------|
C#|---3-|-5---|---3-|-5---|-7---|-3-5-|-3---|-5---------------5-------|
G#|-3-1-|-3---|-3-1-|-3---|-5-3-|-1-3-|-1---|-3-3-3-3-3-3-3-3-3-------|
D#|-1---|-----|-1---|-----|---1-|-----|-----|-------------------------|

[Chorus]
(2 times)
D#|-----|-----|-----|-----|
A#|-----|-----|-----|-----|
F#|-----|-----|-----|-----|
C#|-7-3-|-5-2-|-3-0-|-5-2-|
G#|-5-1-|-3-0-|-1-2-|-3-4-|
D#|-----|-----|-----|-----|

[Solo] (repeat 2 times)
(D5) F5 A#5
(gtr 1)
D#|-------------------|---------------------|------------------------------------|
A#|-------------------|---------------------|------------------13-13-13-13-11-10-|
F#|-14-10----------10-|-12-9----------10-12-|-14-14-14-14-10---------------------|
C#|-------12----12----|------10-------------|----------------9-------------------|
G#|----------12-------|---------10----------|------------------------------------|
D#|-------------------|---------------------|------------------------------------|

(gtr 2)
D#|-------------------|---------------------|------------------------------------|
A#|-------------------|---------------------|------------------10-10-10-10-8-----|
F#|-10-7-----------7--|-9--5----------7--9--|-10-10-10-10-7-------------------10-|
C#|-------7-----7-----|------5--------------|----------------7-------------------|
G#|----------8--------|---------7-----------|------------------------------------|
D#|-------------------|---------------------|------------------------------------|

1st: 2nd:
C5 C5
(gtr 1) (gtr 1)
D#|-----------------------------------|-----------------|
A#|--------------10b(11)r10-----------|-----------------|
F#|-12b(14)-----------------12--------|-12--------------|
C#|-----------------------------------|-----------------|
G#|-----------------------------------|-----------------|
D#|-----------------------------------|-----------------|

(gtr 2) (gtr 2)
D#|-----------------------------------|-----------------|
A#|-----------------------------------|-----------------|
F#|-9b(10)-------10b(12)r10-9---------|-9---------------|
C#|-----------------------------------|-----------------|
G#|-----------------------------------|-----------------|
D#|-----------------------------------|-----------------|

[Chorus]
(at the end the chorus is played 2 frets higher and the lead guitars
do like this:)

(gtrs 2&3)
D#|-------------------|-------------------|-------------------|-------------------|
A#|-8--10-12-5--7--8--|-7--8--10-3--5--7--|-5--7--8--5--7--8--|-7--8--10-7--8--10-|
F#|-9--11-12-5--7--9--|-7--9--11-4--5--7--|-5--7--9--6--7--9--|-7--9--11-8--9--11-|
C#|-------------------|-------------------|-------------------|-------------------|
G#|-------------------|-------------------|-------------------|-------------------|
D#|-------------------|-------------------|-------------------|-------------------|
Song info
Hunting High And Low
Stratovarius
2001
  • Rock
  • Heavy Metal
  • Power Metal
Similar songs
Carnival Diablos - Annihilator
Paper Plane - Status Quo
Fuzz Universe - Paul Gilbert
Metal Warriors - Manowar
Deceiver - Judas Priest

Hi! Hope you enjoy backing track experience.
If you want to help us in the development of the project, feel free to donate!