Prison Song - System of a down
00:00 / 00:00
Tabs and lyrics
Tunning: Drop C (C G C F A D)
[Intro]

(all of intro and chorus is p.m.)

D|---------------------------------------------------------|
A|---------------------------------------------------------|
F|---------------------------------------------------------|
C|-------------------------------------------------3-3-3-3-|
G|--0--1--3--1---0--1--3--1---0--1--3--1---0--1----1-1-1-1-|
C|--0--1--3--1---0--1--3--1---0--1--3--1---0--1------------|

repeat 2

D|---------------------------------------------------------|
A|---------------------------------------------------------|
F|---------------------------------------------------------|
C|---------------------------------------------------------|
G|--0--1--3--1---0--1--3--1---0--1--3--1---0--1------------|
C|--0--1--3--1---0--1--3--1---0--1--3--1---0--1------------|

D|-----------|
A|-----------|
F|-----------|
C|--3-3-3-3--|
G|--1-1-1-1--|
C|-----------|


[Chorus]

D|---------------------------------------------------------|
A|---------------------------------------------------------|
F|---------------------------------------------------------|
C|---------------------------------------------------------|
G|--0-1-0-1-0-1-0---0-1-0-1-0-1-0---0-1-0-1-0-1-0---0-1----|
C|--0-1-0-1-0-1-0---0-1-0-1-0-1-0---0-1-0-1-0-1-0---0-1-0--|

D|-----------|
A|-----------|
F|-----------|
C|--3-3-3-3--|
G|--1-1-1-1--|
C|-----------|

repeat 2

D|---------------------------------------------------------|
A|---------------------------------------------------------|
F|---------------------------------------------------------|
C|---------------------------------------------------------|
G|--0-1-0-1-0-1-0---0-1-0-1-0-1-0---0-1-0-1-0-1-0---0-1----|
C|--0-1-0-1-0-1-0---0-1-0-1-0-1-0---0-1-0-1-0-1-0---0-1----|

D|-----------|
A|-----------|
F|-----------|
C|--3-3-3-3--|
G|--1-1-1-1--|
C|-----------|


[Verse]

(slight p.m.)

D|---------------------------------------------------------|
A|---------------------------------------------------------|
F|---------------------------------------------------------|
C|------8----------------8----------------8----------------|
G|--6-------6--------6-------6--------6-------6------------|
C|---------------------------------------------------------|

repeat 2

D|---------------------------------------------------------|
A|---------------------------------------------------------|
F|---------------------------------------------------------|
C|------8----------------8----------------8----------------|
G|--6-------6--------6-------6--------6-------6------------|
C|---------------------------------------------------------|


(there trying to build a prison)

(p.m.)
D|---------------------------------------------------------|
A|---------------------------------------------------------|
F|---------------------------------------------------------|
C|----8---8---8--------------------------------------------|
G|-6----6---6---6------------------------------------------|
C|---------------------------------------------------------|


[Chorus]

D|---------------------------------------------------------|
A|---------------------------------------------------------|
F|---------------------------------------------------------|
C|---------------------------------------------------------|
G|--0-1-0-1-0-1-0---0-1-0-1-0-1-0---0-1-0-1-0-1-0---0-1----|
C|--0-1-0-1-0-1-0---0-1-0-1-0-1-0---0-1-0-1-0-1-0---0-1-0--|

D|-----------|
A|-----------|
F|-----------|
C|--3-3-3-3--|
G|--1-1-1-1--|
C|-----------|

repeat 2

D|---------------------------------------------------------|
A|---------------------------------------------------------|
F|---------------------------------------------------------|
C|---------------------------------------------------------|
G|--0-1-0-1-0-1-0---0-1-0-1-0-1-0---0-1-0-1-0-1-0---0-1----|
C|--0-1-0-1-0-1-0---0-1-0-1-0-1-0---0-1-0-1-0-1-0---0-1----|

D|-----------|
A|-----------|
F|-----------|
C|--3-3-3-3--|
G|--1-1-1-1--|
C|-----------|


[Verse]

(slight p.m.)

D|---------------------------------------------------------|
A|---------------------------------------------------------|
F|---------------------------------------------------------|
C|------8----------------8----------------8----------------|
G|--6-------6--------6-------6--------6-------6------------|
C|---------------------------------------------------------|

repeat 2

D|---------------------------------------------------------|
A|---------------------------------------------------------|
F|---------------------------------------------------------|
C|------8----------------8----------------8----------------|
G|--6-------6--------6-------6--------6-------6------------|
C|---------------------------------------------------------|


(there trying to build a prison)

(p.m.)
D|---------------------------------------------------------|
A|---------------------------------------------------------|
F|---------------------------------------------------------|
C|----8---8---8--------------------------------------------|
G|-6----6---6---6------------------------------------------|
C|---------------------------------------------------------|


[Chorus]

D|---------------------------------------------------------|
A|---------------------------------------------------------|
F|---------------------------------------------------------|
C|---------------------------------------------------------|
G|--0-1-0-1-0-1-0---0-1-0-1-0-1-0---0-1-0-1-0-1-0---0-1----|
C|--0-1-0-1-0-1-0---0-1-0-1-0-1-0---0-1-0-1-0-1-0---0-1-0--|

D|-----------|
A|-----------|
F|-----------|
C|--3-3-3-3--|
G|--1-1-1-1--|
C|-----------|

repeat 2

D|---------------------------------------------------------|
A|---------------------------------------------------------|
F|---------------------------------------------------------|
C|---------------------------------------------------------|
G|--0-1-0-1-0-1-0---0-1-0-1-0-1-0---0-1-0-1-0-1-0---0-1----|
C|--0-1-0-1-0-1-0---0-1-0-1-0-1-0---0-1-0-1-0-1-0---0-1----|

D|-----------|
A|-----------|
F|-----------|
C|--3-3-3-3--|
G|--1-1-1-1--|
C|-----------|

here is the half time feel:
(uses to guitars at the same time fig. a is a electric,
fig. b is a 12 string acoustic)


[Fig. A]

(let ring)
D|---------------------------------------------------------|
A|------3-------------------2------------------------------|
F|----------3-------3-----------2--------------------------|
C|--------------3-------------------2----------------------|
G|----------------------0----------------------------------|
C|---------------------------------------------------------|


[Fig. B]

(let ring)
D|---------------------------------------------------------|
A|------3--------------------------------------------------|
F|--3-------3-------------------2--------------------------|
C|--------------3-----------2-------2----------------------|
G|------------------1---0----------------------------------|
C|---------------------------------------------------------|


[Interlude]

|--p.m.--|
|---------------------------------------------------------|
|---------------------------------------------------------|
|---------------------------------------------------------|
|---------------------------------------------3-3-3-3-----|
|---------------------------------------------1-1-1-1-----|
|-0--0--0--0--0--0-0-0--0--0--0--0--0--0--0---------------|

repeat 2

(all p.m.)
D|---------------------------------------------------------|
A|---------------------------------------------------------|
F|---------------------------------------------------------|
C|-----------------------------------------------3-3-3-3---|
G|--0--0------0--0--0------0--0--0------0--0--0--1-1-1-1---|
C|--0--0------0--0--0------0--0--0------0--0--0------------|

repeat


[Outro]

D|---------------------------------------------------------|
A|------3-------------------2------------------------------|
F|----------3-------3-----------2--------------------------|
C|--------------3-------------------2----------------------|
G|----------------------0----------------------------------|
C|---------------------------------------------------------|


okay thats the whole song. I've been playing guitar for a month and i can play this song
really good so it's an easy song. if you want any more soad tabs from the toxicity cd
e-mail me at sk8medium@aol.com. Or if anyone has the tab book for soad's first cd
please e-mail me your address.
Tunning: Standard (E A D G B e)
This tab is a corrected version of version 3 i figured out the verse was wrong so here is the right version.


Tuning for song is:
D
A
F
C
G
C

I'm not quite sure about the verse, it sounds good to me though.

Intro:
D:-------------------------------------------
A:-------------------------------------------
F:-------------------------------------------
C:-0------0-1-3-1-0-1-3-1-0-1-3-1-0-1-3-3-3-3
G:-0------0-1-3-1-0-1-3-1-0-1-3-1-0-1-1-1-1-1
C:-0------0-1-3-1-0-1-3-1-0-1-3-1-0-1--------

D:------------------------------------
A:------------------------------------
F:------------------------------------
C:-0-1-3-1-0-1-3-1-0-1-3-1-0-1-3-3-3-3
G:-0-1-3-1-0-1-3-1-0-1-3-1-0-1-1-1-1-1
C:-0-1-3-1-0-1-3-1-0-1-3-1-0-1--------

D:------------------------
A:------------------------
F:------------------------
C:-0-1-3-1-0-1-3-1-0-1-3-1
G:-0-1-3-1-0-1-3-1-0-1-3-1
C:-0-1-3-1-0-1-3-1-0-1-3-1

Chorus 1:
D:--------------------------------------------------------
A:--------------------------------------------------------
F:--------------------------------------------------------
C:-3-3-3-3-0-1-0-3-0-1-0-0-1-0-3-0-1-0-0-1-0-3-0-1-0-0-1-0
G:-1-1-1-1-0-1-0-3-0-1-0-0-1-0-3-0-1-0-0-1-0-3-0-1-0-0-1-0
C:---------0-1-0-3-0-1-0-0-1-0-3-0-1-0-0-1-0-3-0-1-0-0-1-0

D:--------------------------------------------------------
A:--------------------------------------------------------
F:--------------------------------------------------------
C:-3-3-3-3-0-1-0-3-0-1-0-0-1-0-3-0-1-0-0-1-0-3-0-1-0-0-1-0
G:-1-1-1-1-0-1-0-3-0-1-0-0-1-0-3-0-1-0-0-1-0-3-0-1-0-0-1-0
C:---------0-1-0-3-0-1-0-0-1-0-3-0-1-0-0-1-0-3-0-1-0-0-1-0

D:--------------------------------------------
A:--------------------------------------------
F:--------------------------------------------
C:-3-3-3-3-0-1-3-1-0-1-3-1-0-1-3-1-0-1-3-3-3-3
G:-1-1-1-1-0-1-3-1-0-1-3-1-0-1-3-1-0-1-1-1-1-1
C:---------0-1-3-1-0-1-3-1-0-1-3-1-0-1--------

D:--------------------------------------------------------
A:--------------------------------------------------------
F:--------------------------------------------------------
C:-0-1-0-3-0-1-0-0-1-0-3-0-1-0-0-1-0-3-0-1-0-0-1-0-3-3-3-3
G:-0-1-0-3-0-1-0-0-1-0-3-0-1-0-0-1-0-3-0-1-0-0-1-0-1-1-1-1
C:-0-1-0-3-0-1-0-0-1-0-3-0-1-0-0-1-0-3-0-1-0-0-1-0--------

Verse 1:
D:-------
A:-------
F:---3---
C:-1---1-
G:-------
C:-------

Chorus 2:
D:--------------------------------------------------------
A:--------------------------------------------------------
F:--------------------------------------------------------
C:-3-3-3-3-0-1-0-3-0-1-0-0-1-0-3-0-1-0-0-1-0-3-0-1-0-0-1-0
G:-1-1-1-1-0-1-0-3-0-1-0-0-1-0-3-0-1-0-0-1-0-3-0-1-0-0-1-0
C:---------0-1-0-3-0-1-0-0-1-0-3-0-1-0-0-1-0-3-0-1-0-0-1-0

D:--------
A:--------
F:--------
C:-3-3-3-3
G:-1-1-1-1
C:--------

VERSE 2 (Same as verse 1)

CHORUS 1

Bridge:
D:--------------------------------
A:--------------------------------
F:--------------------------------
C:-3-3-3-3-3-3-3-3-2-2-2-2-2-2-2-2
G:-1-1-1-1-1-1-1-1-0-0-0-0-0-0-0-0
C:--------------------------------
"oh baby, you and me..."
D:------------------------------------
A:------------------------------------
F:------------------------------------
C:-0-0-0-0-0-0-0-0-0-0-0-0-0-0-3-3-3-3
G:-0-0-0-0-0-0-0-0-0-0-0-0-0-0-1-1-1-1
C:-0-0-0-0-0-0-0-0-0-0-0-0-0-0--------
|_______________________________________|x6
CHORUS 1

End:
D:----------------------------------
A:----------------------------------
F:----------------------------------
C:-3-3-3-3-3-3-3-3-2-2-2-2-2-2-2-2-0
G:-1-1-1-1-1-1-1-1-0-0-0-0-0-0-0-0-0
C:---------------------------------0
"oh baby, you and me..."

Some small parts are left out but it's just repeating some parts i've already put so just listen to the song and you'll get it.
Tunning: Standard (E A D G B e)
I am re-submitting this tab due to incorrect tuning on the first one.
Thanks.

SeRg


Author/Artist: System Of A Down
Title: Prison Song
Album: Toxicity
Transcribed by: Sergio Moreno
Email: stangaddict@hotmail.com

This song is mainly played with distortion. It sounds like Daron also
uses some other effects on the riff he plays during the verses.

The asterisks (*) mean that the measures enclosed are repeated. If you
have any comments, suggestions, or want to point out a mistake, please
email me.

The tuning for this song is as follows:
C#
G#
E
B
F#
B

|------|------------------|---------------------|-------|
|------|------------------|---------------------|-------|
|------|*-----------------|-------------3-3-3-3-|------*|
|------|*-----------------|-------------3-3-3-3-|------*|
|-0----|--0-1-3-1-0-1-3-1-|-0-1-3-1-0-1-1-1-1-1-|-------|
|-0----|--0-1-3-1-0-1-3-1-|-0-1-3-1-0-1---------|-------|
intro repeat once

-----------------|---------|---------------|
-----------------|---------|---------------|
-----------------|---------|-------3-3-3-3-|
-----------------|---------|-------3-3-3-3-|
-0-1-3-1-0-1-3-1-|-0-1-3-1-|-------1-1-1-1-|
-0-1-3-1-0-1-3-1-|-0-1-3-1-|---------------|
pause

|--------------------------------|--------------------------------|
|--------------------------------|--------------------------------|
|*-------------------------------|-----------------------3-3-3-3-*|
|*-------------------------------|-----------------------3-3-3-3-*|
|--0-1-0-3-0-1-0---0-1-0-3-0-1-0-|-0-1-0-3-0-1-0---0-1-0-1-1-1-1--|
|--0-1-0-3-0-1-0---0-1-0-3-0-1-0-|-0-1-0-3-0-1-0---0-1-0----------|
Riff 1 repeat once (this riff played for chorus as well)

|-----------------|---------------------|-------|
|-----------------|---------------------|-------|
|-----------------|-------------3-3-3-3-|-------|
|-----------------|-------------3-3-3-3-|-------|
|---0-3-1-0-1-3-1-|-0-1-3-1-0-1-1-1-1-1-|-------|
|---0-3-1-0-1-3-1-|-0-1-3-1-0-1---------|-------|
(riff 1)

|--------------|---------------|
|--------------|---------------|
|--3-------3---|---3-------3---|
|1---1---1---1-|-1---1---1---1-|
|--------------|---------------|
|--------------|---------------|
Riff 2 played during verses

|---------------|---------------------|-----------------|
|---------------|-----3---------2-----|-----------------|
|------------3--|-------3---------2---|*----------------|
|------------3--|---------3---------2-|*----------------|
|-0--1--0----1--|-----------1-0-------|-0-0-0-0-0-0-0-0-|
|-0--1--0-------|---------------------|-0-0-0-0-0-0-0-0-|
"for you and me..... for baby you and me..."

---------------------|--------------|-----------------------|
---------------------|--------------|-----------------------|
------------3-3-3-3-*|-*------------|--------------3-3-3-3-*|
------------3-3-3-3-*|-*------------|--------------3-3-3-3-*|
0-0-0-0-0-0-1-1-1-1--|--0-0---0-0-0-|-0-0-0--0-0-0-1-1-1-1--|
0-0-0-0-0-0----------|--0-0---0-0-0-|-0-0-0--0-0-0----------|
"war research and successful..."


_________________________________________________________________
Get your FREE download of MSN Explorer at http://explorer.msn.com/intl.asp



Tunning: Standard (E A D G B e)
___________________
/ System of a Down / This song tells about how senseless the American government's
/ Prison Song / way of handling the growing drug issue is, as they are using
/ Toxicity / more money on the prison sector than they are using on getting
/__________________/ rid of the criminal drug addicts that actually load them.


Guitar I (C G C F A D) - Electric, Heavily Distorted
Guitar II (C G C F A D) - Electric, Crunchy
Guitar III (D G C F A D) - Acoustic, Clean

*note*
the waiting time in the intro is very tricky - I won't assure
that it's 100% correct, but this is my best suggestion, and
I won't exclude that it may be the band's common feeling!



INTRO:
102 bpm (roughly)
Gtr I
3/4 4/4
PM----------------------------------------------|
W W E E E E E E E E E E E E E E S S S s
|---------|---------|-----------------|---------------------|
|---------|---------|-----------------|---------------------|
|---------|---------|-----------------|---------------------|
|---------|---------|-----------------|-------------3-3-3-3-|
|-0-------|---------|-0-1-3-1-0-1-3-1-|-0-1-3-1-0-1-1-1-1-1-|
|-0-------|---------|-0-1-3-1-0-1-3-1-|-0-1-3-1-0-1---------|


2/4 4/4
PM--------------------------|
W W E E E E E E E E E E E E E E S S S s
|---------|---------|-----------------|---------------------|
|---------|---------|-----------------|---------------------|
|---------|---------|-----------------|---------------------|
|---------|---------|-----------------|-------------3-3-3-3-|
|---------|---------|-0-1-3-1-0-1-3-1-|-0-1-3-1-0-1-1-1-1-1-|
|---------|---------|-0-1-3-1-0-1-3-1-|-0-1-3-1-0-1---------|


5/4 4/4
PM----------------------|
W H E E E E E E E E E E E E H Q S S S s
|---------|-----------------|-----------------|-------------|
|---------|-----------------|-----------------|-------------|
|---------|-----------------|-----------------|-------------|
|---------|-----------------|-----------------|-----3-3-3-3-|
|---------|---------0-1-3-1-|-0-1-3-1-0-1-3-1-|-----1-1-1-1-|
|---------|---------0-1-3-1-|-0-1-3-1-0-1-3-1-|-------------|


PM----------------------------------------------------|
S S S S S S S S S S S S S S S S S S S S S S S S S S S S S S S S 2x
||----------------------------------|----------------------------------||
||o---------------------------------|---------------------------------o||
||----------------------------------|----------------------------------||
||----------------------------------|-------------------------3-3-3-3--||
||o---0-1-0-1-0-1-0---0-1-0-1-0-1-0-|---0-1-0-1-0-1-0---0-1-0-1-1-1-1-o||
||----0-1-0-1-0-1-0---0-1-0-1-0-1-0-|---0-1-0-1-0-1-0---0-1-0----------||
|-Rhy Fig 1 end Rhy Fig 1-|


PM--------------------------|
E E E E E E E E E E E E E E S S S s
|-----------------|---------------------|-----------|
|-----------------|---------------------|-----------|
|-----------------|---------------------|----Rhy----|
|-----------------|-------------3-3-3-3-|---Fig-1---|
|-0-1-3-1-0-1-3-1-|-0-1-3-1-0-1-1-1-1-1-|-----------|
|-0-1-3-1-0-1-3-1-|-0-1-3-1-0-1---------|-----------|
|-Rhy Fig 2 end Rhy Fig 2-|



VERSE
Gtr II
PM------| PM----| PM------------| PM------------------------|
E e e e E e E e E e E e e e e e E e E e E e e e E e e e E e e e
|-------------------|-------------------|-------------------|-----------------|
|-------------------|-------------------|-------------------|-----------------|
|-------------------|---------------8---|-----<8>-----------|-----------------|
|-----8-------<8>---|-----<8>-----------|---------------8---|-----8-------8---|
|---6---6---6-----6-|---6-----6---6---6-|---6-----6---6---6-|---6---6---6---6-|
|-------------------|-------------------|-------------------|-----------------|


Gtr I
PM--------------------------------------|
W W E e e e E e e e E e e e S S S S S S s s
|---------|---------|-----------------|-------------------------|
|---------|---------|-----------------|-------------------------|
|---------|---------|-----------------|-------------------------|
|---------|---------|-----8-------8---|-----8-----8---8---8---8-|
|---------|---------|---6---6---6---6-|---6---6-----6---6---6---|
|---------|---------|-----------------|-------------------------|



CHORUS
Gtr I
Rhy Fig 1 x2



VERSE
Gtr II
PM PM--| PM----| PM--| PM----| PM--| PM----| PM--| PM
E e E e E e E e E e E e e e E e E e E e E e E e E e E e E e E e
|---------------------|---------------------|---------------------|---------------------|
|---------------------|---------------------|---------------------|---------------------|
|---------------<8>---|-----<8>-------<8>---|---------------------|---------------<8>---|
|-----<8>-------------|---------------------|---------------<8>---|-----<8>-------------|
|---6-----6---6-----6-|---6-----6---6-----6-|---6-<8>-6---6-----6-|---6-----6---6-----6-|
|---------------------|---------------------|---------------------|---------------------|


Gtr I
PM PM PM----| PM--------------|
W W E e E E E e E e E e E e S S S S S S s s
|---------|---------|-----------------------|---------------------------|
|---------|---------|-----------------------|---------------------------|
|---------|---------|-----------------<8>---|---------------------------|
|---------|---------|-----<8>---------------|-----<8>-----8---8---8---8-|
|---------|---------|---6-----<6>---6-----6-|---6-----6-----6---6---6---|
|---------|---------|-----------------------|---------------------------|



CHORUS
Gtr I
Rhy Fig 1 x2, Rhy Fig 2, then:

3/4
PM----------------------------------------------------|
S S S S S S S S S S S S S S S S S S S S S S S S S S S S
|---------------------------------|-------------------------|
|---------------------------------|-------------------------|
|---------------------------------|-------------------------|
|---------------------------------|-------------------------|
|---0-1-0-1-0-1-0---0-1-0-1-0-1-0-|---0-1-0-1-0-1-0---0-1-0-|
|---0-1-0-1-0-1-0---0-1-0-1-0-1-0-|---0-1-0-1-0-1-0---0-1-0-|

Gtr I
4/4
W E E E E E E E E
|---------|-----------------|
|---------|-3---------2-----|
|---------|---3---3-----2---|
|-3-------|-----3---------2-|
|-1-------|---------0-------|
|---------|-----------------|
|
|Gtr III
| H. E E E E E E E E E
|---------|-------------5---|
|---------|---------------5-|
|---------|-7---------------|
|-------8-|---8-------7-----|
|---------|-----8-----------|
|---------|-------6-5-------|



BRIDGE:
Gtr I
E E E E E E E E E E E E E E S S S S E E E E E E E E E E E E E E S S S S
|-----------------|---------------------|-----------------|---------------------|
|-----------------|---------------------|-----------------|---------------------|
|-----------------|---------------------|-----------------|---------------------|
|-----------------|-------------3-3-3-3-|-----------------|-------------3-3-3-3-|
|-----------------|-------------1-1-1-1-|-----------------|-------------1-1-1-1-|
|-0-0-0-0-0-0-0-0-|-0-0-0-0-0-0---------|-0-0-0-0-0-0-0-0-|-0-0-0-0-0-0---------|


PM------------------------------|
E E E S S E E E S E E E S S E E S S S S 4x
||--------------------|------------------------||
||o-------------------|-----------------------o||
||--------------------|------------------------||
||--------------------|---------------3-3-3-3--||
||o-0-0-----0-0-0---0-|-0-0-----0-0-0-1-1-1-1-o||
||--0-0-----0-0-0---0-|-0-0-----0-0-0----------||


Gtr II Gtr I
PM PM--| PM----| PM---------------|
W W E e E e E e E e E e E e S S S S S S S s
|---------|---------|---------------------|---------------------------|
|---------|---------|---------------------|---------------------------|
|---------|---------|---------------------|---------------------------|
|---------|---------|-----<8>-------<8>---|-----<8>-----8---8---8---8-|
|---------|---------|---6-----6---6-----6-|---6-----6-----6---6---6---|
|---------|---------|---------------------|---------------------------|



CHORUS
Gtr I
Rhy Fig 1 x2, Rhy Fig 2, then:

3/4
PM----------------------------------------------------|
S S S S S S S S S S S S S S S S S S S S S S S S S S S S
|---------------------------------|-------------------------|
|---------------------------------|-------------------------|
|---------------------------------|-------------------------|
|---------------------------------|-------------------------|
|---0-1-0-1-0-1-0---0-1-0-1-0-1-0-|---0-1-0-1-0-1-0---0-1-0-|
|---0-1-0-1-0-1-0---0-1-0-1-0-1-0-|---0-1-0-1-0-1-0---0-1-0-|


Gtr I
4/4
W E E E E E E E E W
|---------|-----------------|-1-------|
|---------|-3---------2-----|-3-------|
|---------|---3---3-----2---|-2-------|
|-3-------|-----3---------2-|-0-------|
|-1-------|---------0-------|-0-------|
|---------|-----------------|-0-------|
|
|Gtr III
| W W W
|---------|-----------------|---------|
|---------|-----------------|-6-------|
|---------|-----------------|-7-------|
|---------|-----------------|-7-------|
|---------|-----------------|-5-------|
|---------|-----------------|---------|



------------------------------------------------------------------------------
29th /June /05
I'd love comments and corrections at Maitinin@gmail.com!
------------------------------------------------------------------------------


" Maitinin writing here - the author of this tab.

The past 11 years, I have generated 10,318,000 views and 815 top-rated tabs for this site.
If you want to support an eager contributor like me, check out my own site:


_____ http://www.PlayLikeTheGreats.com _____


Here I will continue to upload and improve my transcriptions.

Best regards,
Maitinin

July, 2015 "
Song info
Prison Song
System of a down
2001
  • Rock
  • Heavy Metal
Alternative tracks
Similar songs
Heavy Metal - Judas Priest
Wrathchild - Iron Maiden
2000 Man - KISS
Lie - Dream Theater
Go Off - Cacophony

Hi! Hope you enjoy backing track experience.
If you want to help us in the development of the project, feel free to donate!