00:00 / 00:00
Tabs and lyrics
Tunning: Nashville (E A D G B E)
sytem of a down
Sugar -------------------
-------------------
intro/chorus 8x -------------------
E|---------|---------| -------------------
B|---------|---------| --------- * * * * *
G|---------|---------| --------- * * * * *
D|---------|---------| --------- * * * * *
A|-0-7-6-5-|-0-6-6-5-|
E|-0-7-6-5-|-0-6-6-5-|


riff 1 3x
|-----13---13---12--------10---10-|
|--10--------------13---10--------|
|---------------------------------|
|---------------------------------|
|---------------------------------|
|---------------------------------|


riff 2 1x let ring
|------13---13---12--------|-10----10----10----10----|
|--10---------------13~~~10|----10----10----10----10-|
|--------------------------|-------------------------|
|--------------------------|-------------------------|
|--------------------------|-------------------------|


chorus 8x
|---------|---------|
|---------|---------|
|---------|---------|
|---------|---------|
|-0-7-6-5-|-0-6-6-5-|
|-0-7-6-5-|-0-6-6-5-|


2x
|-----13---13---12---------10---10-|
|--10--------------13---10---------|
|----------------------------------|
|----------------------------------|
|----------------------------------|
|----------------------------------|

1x
|-----13---13---12---------|-10----10----10----10----|
|--10--------------13~~~10-|----10----10----10----10-|
|--------------------------|-------------------------|
|--------------------------|-------------------------|
|--------------------------|-------------------------|
|--------------------------|-------------------------|


chorus 8x
|---------|---------|
|---------|---------|
|---------|---------|
|---------|---------|
|-0-7-6-5-|-0-6-6-5-|
|-0-7-6-5-|-0-6-6-5-|


bridge 8x
|----------|
|----------|
|----------| (1:47)
|----------|
|-1----1-0-|
|-1----1-0-|


outro 12x
|-------------|---------------|
|-------------|---------------| gets faster
|-------------|---------------|
|-------------|---------------| (1:58)
|-1----x--1-0-|-1-0----x--0-0-|
|-1----x--1-0-|-1-0----x--0-0-|
p.m _ _ _ _


intro-8x
riff1-3x
riff2-1x
chorus-8x
riff1-2x
riff2-1x
chours-8x
birdge-8x
outro-12x
Tunning: Drop C (C G C F A D)
bandname: System of a Down
songname: Sugar
tabtype: guitar



Tuning: Drop D (D A D G B E) down one step (C G C F A D)

[Intro]

D|----------------------------------------------| (x 4)
A|----------------------------------------------|
F|----------------------------------------------|
C|-0-7-6-5--0-7-6-5--0-7-6-5--0-7-6-5--0-7-6-5--|
G|-0-7-6-5--0-7-6-5--0-7-6-5--0-7-6-5--0-7-6-5--|
C|-0-7-6-5--0-7-6-5--0-7-6-5--0-7-6-5--0-7-6-5--|


[Verse]

D|----13-~-13-12-------10-/-10-/---13-~-13-12-------10-/--10-/--|
A|-10------------13-10-----------10------------13-10------------|
F|--------------------------------------------------------------|
C|--------------------------------------------------------------|
G|--------------------------------------------------------------|
C|--------------------------------------------------------------|

D|-----13-S-13-12---------10----10----10----10-----------------|
A|-10-------------13-h-10----10----10----10----10--------------|
F|-------------------------------------------------------------|
C|-------------------------------------------------------------|
G|-------------------------------------------------------------|
C|-------------------------------------------------------------|

[Chorus]

D|-----------------------------------------------------|
A|-----------------------------------------------------|
F|-----------------------------------------------------|
C|-0-7-6-5--0-7-6-5--0-7-6-5--0-7-6-5--0-7-6-5-0-7-6-5-|
G|-0-7-6-5--0-7-6-5--0-7-6-5--0-7-6-5--0-7-6-5-0-7-6-5-|
C|-0-7-6-5--0-7-6-5--0-7-6-5--0-7-6-5--0-7-6-5-0-7-6-5-|

[Bridge]

D|----------------------------------------------|
A|----------------------------------------------|
F|----------------------------------------------|
C|-1-~-1-0-----1-~-1-0--------------------------|
G|-1---1-0-----1---1-0--------------------------|
C|-1---1-0-----1---1-0--------------------------|

Outro Chorus

D|----------------------------------------------| (x4)
A|----------------------------------------------|
F|----------------------------------------------|
C|-1-~-12-/-1-0-1-0-~-12-/-0--------------------|
G|-1---12-/-1-0-1-0---12-/-0--------------------|
C|-1---12-/-1-0-1-0---12-/-0--------------------|

[Outro]

D|---------------------------------------------------------|
A|---------------------------------------------------------|
F|---------------------------------------------------------|
C|-0-7-6-5-0-7-6-5-0-7-6-5-0-7-6-5-0-7-6-5-0-7-6-5-0-7-6-5-|
G|-0-7-6-5-0-7-6-5-0-7-6-5-0-7-6-5-0-7-6-5-0-7-6-5-0-7-6-5-|
C|-0-7-6-5-0-7-6-5-0-7-6-5-0-7-6-5-0-7-6-5-0-7-6-5-0-7-6-5-|



************************************

| h Hammer-on
| / Slide up
| ~ Vibrato

************************************
Tunning: Standard (E A D G B e)
system of a down
sugar


Bass and drums [intro]
G|---------------|
D|---------------|
A|---------------|
E|-6-5-4-3-2-1-0-|

[Chorus](reapet several times)
the kombucha mushroom people siting around allday
e|----------------------------------------------------------|
B|----------------------------------------------------------|
G|----------------------------------------------------------|
D|-0----7----6----5----0----7----6----5----0----7----6----5-|
A|-0----7----6----5----0----7----6----5----0----7----6----5-|
E|-0----7----6----5----0----7----6----5----0----7----6----5-|

G|----------------------------------------------------------|
D|----------------------------------------------------------|
A|----------------------------------------------------------|
E|-0----7----6----5----0----7----6----5----0----7----6----5-|

WHO can belive you WHO can belive you
e|----------------------------------------------------------|
B|----------------------------------------------------------|
G|----------------------------------------------------------|
D|-0----7----6----5----0----7----6----5----0----7----6----5-|
A|-0----7----6----5----0----7----6----5----0----7----6----5-|
E|-0----7----6----5----0----7----6----5----0----7----6----5-|

G|----------------------------------------------------------|
D|----------------------------------------------------------|
A|----------------------------------------------------------|
E|-0----7----6----5----0----7----6----5----0----7----6----5-|

Let your mother prraayy
e|------------------|
B|------------------|
G|------------------|
D|-0----7----6----5-|
A|-0----7----6----5-|
E|-0----7----6----5-|

G|------------------|
D|------------------|
A|------------------|
E|-0----7----6----5-|

Bass guitar on its own CArry on same rythum
SSSUUUGGGAAARRR
G|----------------------------------------------------------|
D|----------------------------------------------------------|
A|----------------------------------------------------------|
E|-0----7----6----5----0----7----6----5----0----7----6----5-|

[Verse]
e|----13-13-12-------10--10--|
B|-10----------13-10---------|
G|---------------------------|
D|---------------------------|
A|---------------------------|
E|---------------------------|
End the verse here (MY BRAINS!!!)

e|-10---10---10---10---|
B|---10---10---10---10-|
G|---------------------|
D|---------------------|
A|---------------------|
E|---------------------|

[Chorus](reapet several times)
the kombucha mushroom people siting around allday
e|----------------------------------------------------------|
B|----------------------------------------------------------|
G|----------------------------------------------------------|
D|-0----7----6----5----0----7----6----5----0----7----6----5-|
A|-0----7----6----5----0----7----6----5----0----7----6----5-|
E|-0----7----6----5----0----7----6----5----0----7----6----5-|

G|----------------------------------------------------------|
D|----------------------------------------------------------|
A|----------------------------------------------------------|
E|-0----7----6----5----0----7----6----5----0----7----6----5-|

WHO can belive you WHO can belive you
e|----------------------------------------------------------|
B|----------------------------------------------------------|
G|----------------------------------------------------------|
D|-0----7----6----5----0----7----6----5----0----7----6----5-|
A|-0----7----6----5----0----7----6----5----0----7----6----5-|
E|-0----7----6----5----0----7----6----5----0----7----6----5-|

G|----------------------------------------------------------|
D|----------------------------------------------------------|
A|----------------------------------------------------------|
E|-0----7----6----5----0----7----6----5----0----7----6----5-|

Let your mother prraayy
e|------------------|
B|------------------|
G|------------------|
D|-0----7----6----5-|
A|-0----7----6----5-|
E|-0----7----6----5-|

G|------------------|
D|------------------|
A|------------------|
E|-0----7----6----5-|

Bass guitar on its own carry on same rythum
SSSUUUGGGAAARRR
G|----------------------------------------------------------|
D|----------------------------------------------------------|
A|----------------------------------------------------------|
E|-0----7----6----5----0----7----6----5----0----7----6----5-|

[Verse]
e|----13-13-12-------10--10--|
B|-10----------13-10---------|
G|---------------------------|
D|---------------------------|
A|---------------------------|
E|---------------------------|

End the verse here (SUGAR!!!)
e|-10---10---10---10---|
B|---10---10---10---10-|
G|---------------------|
D|---------------------|
A|---------------------|
E|---------------------|

[Chorus](reapet several times)
the kombucha mushroom people siting around allday
e|----------------------------------------------------------|
B|----------------------------------------------------------|
G|----------------------------------------------------------|
D|-0----7----6----5----0----7----6----5----0----7----6----5-|
A|-0----7----6----5----0----7----6----5----0----7----6----5-|
E|-0----7----6----5----0----7----6----5----0----7----6----5-|

G|----------------------------------------------------------|
D|----------------------------------------------------------|
A|----------------------------------------------------------|
E|-0----7----6----5----0----7----6----5----0----7----6----5-|

WHO can belive you WHO can belive you
e|----------------------------------------------------------|
B|----------------------------------------------------------|
G|----------------------------------------------------------|
D|-0----7----6----5----0----7----6----5----0----7----6----5-|
A|-0----7----6----5----0----7----6----5----0----7----6----5-|
E|-0----7----6----5----0----7----6----5----0----7----6----5-|

G|----------------------------------------------------------|
D|----------------------------------------------------------|
A|----------------------------------------------------------|
E|-0----7----6----5----0----7----6----5----0----7----6----5-|

Let your mother prraayy
e|------------------|
B|------------------|
G|------------------|
D|-0----7----6----5-|
A|-0----7----6----5-|
E|-0----7----6----5-|

G|------------------|
D|------------------|
A|------------------|
E|-0----7----6----5-|


[Interlude]
i sit my dyslight room no lights no music JUST ANGER
e|--------------------------------------------------------------------|
B|--------------------------------------------------------------------|
G|--------------------------------------------------------------------|
D|-1------1-0-----------------1----------1-0---------1------------1-0-|
A|-1------1-0-----------------1----------1-0---------1------------1-0-|
E|-1------1-0-----------------1----------1-0---------1------------1-0-|

im away forever but im feeling better
e|------------------------------------------|
B|------------------------------------------|
G|------------------------------------------|
D|----------------1-------------------------|
A|----------------1-------------------------|
E|----------------1-------------------------|

what do i feel? what do i say? *** you and all gos away
P.M------------------------------------------------------|
e|---------------------------------------------------------|
B|---------------------------------------------------------|
G|---------------------------------------------------------|
D|-1-0-0-0-1-0-1-0-0-0-1-0-1-0-0-0-1-0-1-0-0-0-1-0-1-0-0-0-|
A|-1-0-0-0-1-0-1-0-0-0-1-0-1-0-0-0-1-0-1-0-0-0-1-0-1-0-0-0-|
E|-1-0-0-0-1-0-1-0-0-0-1-0-1-0-0-0-1-0-1-0-0-0-1-0-1-0-0-0-|

how do i feel? what do i say? in the end it all go's away
P.M------------------------------------------------------|
e|---------------------------------------------------------|
B|---------------------------------------------------------|
G|---------------------------------------------------------|
D|-1-0-0-0-1-0-1-0-0-0-1-0-1-0-0-0-1-0-1-0-0-0-1-0-1-0-0-0-|
A|-1-0-0-0-1-0-1-0-0-0-1-0-1-0-0-0-1-0-1-0-0-0-1-0-1-0-0-0-|
E|-1-0-0-0-1-0-1-0-0-0-1-0-1-0-0-0-1-0-1-0-0-0-1-0-1-0-0-0-|

near end of song
P.M------|
e|---------|
B|---------|
G|---------| gradully realease the palm mute :D
D|-0-7-6-5-|
A|-0-7-6-5-|
E|-0-7-6-5-|



************************************

| P.M Palm Mute

************************************
Song info
Sugar
System of a down
2001
  • Rock
  • Heavy Metal
  • Nu Metal
Alternative tracks
Similar songs
Holy Diver - Dio
Papercut - Linkin Park
I Wanna Rock - Twisted Sister
Mind - System of a down
Kings Of Metal - Manowar

Hi! Hope you enjoy backing track experience.
If you want to help us in the development of the project, feel free to donate!