Hot Love - T. Rex
00:00 / 00:00
Tabs and lyrics
Tunning: Standard (E A D G B e)
A great t rex hit


:--------2--2-------------| the main riff
B:-------0--0-------------| up and down strokes
G:-------0--0-------------|
D:-0--0--0--0--0--0-------| repeat 9x d= down
A:-2--2--3--3--2--2-------| u- up
E:-3--3--3--3--3--3-------|
d u d u d u

c a d
:--0--0--0--0--0--0--0--0--2--2--2--2--- just play down strokes
B:-1--1--1--1--2--2--2--2--3--3--3--3---
G:-0--0--0--0--2--2--2--2--2--2--2--2--- play once then go back to main
D:-2--2--2--2--2--2--2--2--0--0--0--0--- riff
A:-3--3--3--3--0--0--0--0--0--0--0--0---
E:-0--0--0--0--0--0--0--0--0--0--0--0---



solo its only a short one but very easy
|-----------------------------------------|
|-----------------------------------------|
|121212121212121212s5---1212121212121212s5|
|-----------------------------------------|
|-----------------------------------------|
|-----------------------------------------|

|-------------------------------------------------------|
|--------------------------10----12----12b--12---10--15b|
|-121212121212121212--12--------------------------------|
|-------------------------------------------------------|
|-------------------------------------------------------|
|-------------------------------------------------------|

|-------------------------------------------------------|
|------12b---10----------15---12---10--------12b---10---| mute the 10s
|-12v--------------7v-------------------12v-------------|straight after
|-------------------------------------------------------|you pick it
|-------------------------------------------------------|
|-------------------------------------------------------|
hope you like its my first propa tab
punt14_@hotmail.co.uk
Song info
Hot Love
T. Rex
2001
  • Rock
  • Glam
  • Pop Rock
Alternative tracks
Similar songs
Cold Turkey - John Lennon
Boys Of Summer - Don Henley
Rosanna - Toto
Musica Urbana - Capital Inicial
Bintang di surga - Peterpan

Hi! Hope you enjoy backing track experience.
If you want to help us in the development of the project, feel free to donate!