Monster - The Automatic
00:00 / 00:00
Tabs and lyrics
Tunning: Standard (E A D G B e)
-------------------------------------------------------------------------------
Monster - The Automatic
-------------------------------------------------------------------------------
Tabbed by: Aron S*
Email: goodsum@hotmail.com

Tuning: Standard

*i've revised the beginning of the verse, i think it sounds better this way


Intro:

e|---------------------------------|
B|--5-5-/15--15-\12-13-12--7-7-8---|
G|---------------------------------|
D|---------------------------------| X3
A|---------------------------------|
E|---------------------------------|

e|-------------------------15-15-14\12--|
B|--5-5-/15--15-\12-13-12---------------|
G|--------------------------------------|
D|--------------------------------------|
A|--------------------------------------|
E|--------------------------------------|


Verse:

e|-12----12----12----12----12----12----12----12-----|
B|-13-12-13-12-13-12-13-12-13-12-13-12-13-12-13-12--|
G|--------------------------------------------------|
D|--------------------------------------------------|
A|--------------------------------------------------|
E|--------------------------------------------------|


e|----------------------------------------------------------|
B|--10/15--10/15--10/15--10/15--10/15--10/15--10/15--10/15--|
G|----------------------------------------------------------|
D|----------------------------------------------------------|
A|----------------------------------------------------------|
E|----------------------------------------------------------|


Chorus:

e|-------------------------------------------------------------------|
B|-------------------------------------------------------------------|
G|----------------------------------9-9-9-9-9-9-9-9-7-7-7-7-7-7-7-7--|
D|--7-7-7-7-7-7-7-7-9-9-9-9-9-9-9-9-9-9-9-9-9-9-9-9-7-7-7-7-7-7-7-7--|
A|--7-7-7-7-7-7-7-7-9-9-9-9-9-9-9-9-7-7-7-7-7-7-7-7-5-5-5-5-5-5-5-5--|
E|--5-5-5-5-5-5-5-5-7-7-7-7-7-7-7-7----------------------------------|


Solo:

e|-----------------------------------------|
B|-----------------------------------------|
G|--9--/11--/12--\14--\12--\11--/19-19-19--|
D|--x---x----x----x----x----x----x--x--x---| x3
A|--7--/9---/10--\12--\10--\9---/17-17-17--|
E|-----------------------------------------|

e|-------------------------------------------|
B|-------------------------------------------|
G|--9--/11--/12--\14--\12--/11--/9--\12--\9--|
D|--x---x----x----x----x----x----x---x---x---|
A|--7--/9---/10--\12---\10--/9--/7--\10--\7--|
E|-------------------------------------------|


Bridge:

e|-------------------------------------------------------------|
B|-------------------------------------------------------------|
G|--9-xx-9-9-9-9--12-11--9-xx-9-9-9-9--11/12\11--9-xx-9-9-9-9--|
D|--9-xx-9-9-9-9--12-11--9-xx-9-9-9-9--11/12\11--9-xx-9-9-9-9--|
A|--7-xx-7-7-7-7--10--9--7-xx-7-7-7-7---9/10\-9--7-xx-7-7-7-7--|
E|-------------------------------------------------------------|

e|-------------------------------------------|
B|-------------------------------------------|
G|--9-xx-9-9-9-9--12-11--9-xx-9-9-9-12---11--|
D|--9-xx-9-9-9-9--12-11--9-xx-9-9-9-12---11--|
A|--7-xx-7-7-7-7--10--9--7-xx-7-7-7-10----9--|
E|-------------------------------------------|

e|--------------------------------------------------------------------------|
B|--------------------------------------------------------------------------|
G|--9-9-9-9-9-9--11/12\11--9-9-9-9-9-9--14-13--9-9-9-9-9-9--14/16\14\12/14--|
D|--x-x-x-x-x-x---x--x-x---x-x-x-x-x-x--x--x---x-x-x-x-x-x--x--x--x--x--x---|
A|--7-7-7-7-7-7---9/10\9---7-7-7-7-7-7--12-11--7-7-7-7-7-7--12/14\12\10/12--|
E|--------------------------------------------------------------------------|


e|----------------------------------|------------------------------------|
B|----------------------------------|------------------------------------|
G|--9-9-9-9-9-9--19-19-19-19-19-19--|--9-9-9-9/11-11-11-11/12-12-12-12/--|
D|--x-x-x-x-x-x--x--x--x--x--x--x---|--x-x-x-x--x--x--x--x-x--x--x--x----|
A|--7-7-7-7-7-7--17-17-17-17-17-17--|--7-7-7-7/-9--9--9--9/10-10-10-10/--|
E|----------------------------------|------------------------------------|

e|-----------------------------------------------------------------|
B|-----------------------------------------------------------------|
G|--14-14-14-14/16-16-16-16/17-17-17-17/19-19-19-19-/20-20-20-20^--|
D|--x--x--x--x--x--x--x--x--x--x--x--x--x--x--x--x---x--x--x--x----|
A|--12-12-12-12/14-14-14-14/15-15-15-15/17-17-17-17-/18-18-18-18^--|
E|-----------------------------------------------------------------|


Outro:

e|------------------------------------------------------------|
B|------------------------------------------------------------|
G|---------------------------------------9-9-7-9-9-7-9-9-7-9--|
D|--10-10-10-10-10-10-12-12-12-12-12-12--9-9-7-9-9-7-9-9-7-9--|
A|--10-10-10-10-10-10-12-12-12-12-12-12--7-7-5-7-7-5-7-7-5-7--|
E|--8--8--8--8--8--8--10-10-10-10-10-10-----------------------|

**During second verse, about half way through it plays the intro rather than verse


| / slide up
| \ slide down
| h hammer-on
| p pull-off
| ~ vibrato
| + harmonic
| x Mute note
===============================================================================
Tunning: Standard (E A D G B e)
Tabbed By: McLuff

Tuning: Standard


Intro:

e|---------------------------------------|
B|-------12/15-15-13-12-13-12------------|
G|---9-9-----------------------11-11-----|
D|---------------------------------------| X3
A|---------------------------------------|
E|---------------------------------------|

e|-----------------------------15-14-12--|
B|-------12/15-15-13-12-13-12--------12--|
G|---9-9---------------------------------|
D|---------------------------------------|
A|---------------------------------------|
E|---------------------------------------|

Verse:

e|-------------------------------------------------------------|
B|--15---14---12-13-12-13-12-13-12-13-12-13-12-13-12-13-12-12--|
G|-------------------------------------------------------------|
D|-------------------------------------------------------------|
A|-------------------------------------------------------------|
E|-------------------------------------------------------------|

After Verse Just Before The Chorus:

e|----12---------|
B|----15b--------|
G|---------------|
D|---------------|
A|---------------|
E|---------------|


Chorus:

e|-------------------------------------------------------------------|
B|-------------------------------------------------------------------|
G|----------------------------------9-9-9-9-9-9-9-9-7-7-7-7-7-7-7-7--|
D|--7-7-7-7-7-7-7-7-9-9-9-9-9-9-9-9-9-9-9-9-9-9-9-9-7-7-7-7-7-7-7-7--|
A|--7-7-7-7-7-7-7-7-9-9-9-9-9-9-9-9-7-7-7-7-7-7-7-7-5-5-5-5-5-5-5-5--|
E|--5-5-5-5-5-5-5-5-7-7-7-7-7-7-7-7----------------------------------|

Solo:

e|---------------------------------------|
B|---------------------------------------|
G|--9--/11--/12--\11--\9--\7--/19-19-19--|
D|--x---x----x----x----x---x---x--x--x---| x3
A|--7--/9---/10--\9---\7--\5--/17-17-17--|
E|---------------------------------------|

e|-------------------------------------------|
B|-------------------------------------------|
G|--9--/11--/12--\11--\9--/11--/12--\11--\9\-|
D|--x---x----x----x----x---x----x----x----x--|
A|--7--/9---/10--\9---\7--/9---/10--\9---\7\-|
E|-------------------------------------------|


Bridge:

e|------------------------------------------------------------|
B|------------------------------------------------------------|
G|--9-xx-9-9-9-9--12-11--9-xx-9-9-9-9--7\9-7\9--9-xx-9-9-9-9--|
D|--9-xx-9-9-9-9--12-11--9-xx-9-9-9-9--7\9-7\9--9-xx-9-9-9-9--|
A|--7-xx-7-7-7-7--10-10--7-xx-7-7-7-7--5\7-5\7--7-xx-7-7-7-7--|
E|------------------------------------------------------------|

e|-------------------------------------------|
B|-------------------------------------------|
G|--9-xx-9-9-9-9--12-11--9-xx-9-9-9-12---11--|
D|--9-xx-9-9-9-9--12-11--9-xx-9-9-9-12---11--|
A|--7-xx-7-7-7-7--10-10--7-xx-7-7-7-10---10--|
E|-------------------------------------------|

e|-------------------------------------------------------------------------|
B|-------------------------------------------------------------------------|
G|--9-9-9-9-9-9--11/12\11--9-9-9-9-9-9--14-13--9-9-9-9-9-9--14/16\14\12/14-|
D|--x-x-x-x-x-x---x--x-x---x-x-x-x-x-x--x--x---x-x-x-x-x-x--x--x--x--x--x--|
A|--7-7-7-7-7-7---9/10\9---7-7-7-7-7-7--12-11--7-7-7-7-7-7--12/14\12\10/12-|
E|-------------------------------------------------------------------------|


e|----------------------------------|------------------------------------
B|----------------------------------|------------------------------------
G|--9-9-9-9-9-9--19-19-19-19-19-19--|--9-9-9-9/11-11-11-11/12-12-12-12/--
D|--x-x-x-x-x-x--x--x--x--x--x--x---|--x-x-x-x--x--x--x--x-x--x--x--x----
A|--7-7-7-7-7-7--17-17-17-17-17-17--|--7-7-7-7/-9--9--9--9/10-10-10-10/--
E|----------------------------------|------------------------------------

e|-----------------------------------------------------------------|
B|-----------------------------------------------------------------|
G|--14-14-14-14/16-16-16-16/17-17-17-17/19-19-19-19-/20-20-20-20^--|
D|--x--x--x--x--x--x--x--x--x--x--x--x--x--x--x--x---x--x--x--x----|
A|--12-12-12-12/14-14-14-14/15-15-15-15/17-17-17-17-/18-18-18-18^--|
E|-----------------------------------------------------------------|


Outro:

e|------------------------------------------------------------------------|
B|------------------------------------------------------------------------|
G|---------------------------------------9-9-9-9-7-9-9-9-9-7-9-9-9-9-7-9--|
D|--10-10-10-10-10-10-12-12-12-12-12-12--9-9-9-9-7-9-9-9-9-7-9-9-9-9-7-9--|
A|--10-10-10-10-10-10-12-12-12-12-12-12--7-7-7-7-5-7-7-7-7-5-7-7-7-7-5-7--|
E|--8--8--8--8--8--8--10-10-10-10-10-10-----------------------------------|
*This is only played once at the end of the song

Song order:
Intro
Verse
Chorus
Intro :Only start of it played once
Verse
Chorus
Solo
Bridge
Chorus
Outro

There we have it. An amazing song layed out infront of you.Enjoy
Tunning: Standard (E A D G B e)
The Automatic - Monster


Intro
-----

E [------------------------------------------]
B [-5---5/12-15-15-13p12-12---12\7---7-8p7\5-]
G [------------------------------------------]
D [------------------------------------------] (x3)
A [------------------------------------------]
E [------------------------------------------]

E [------------------------------15------14----12-]
B [-5---5/12-15-15-13p12-12---12------12----12----]
G [-----------------------------------------------]
D [-----------------------------------------------]
A [-----------------------------------------------]
E [-----------------------------------------------]


Verse 1
-------

E [-12----12----12----12----12----12----12----12------10---10---10---10---10---10---10---10-]
B [----12----12----12----12----12----12----12----12---12---12---12---12---12---12---12---12-]
G [-----------------------------------------------------------------------------------------]
D [-----------------------------------------------------------------------------------------]
A [-----------------------------------------------------------------------------------------]
E [-----------------------------------------------------------------------------------------]

before chorus play...

E [---12------]
B [---15b17---]
G [-----------]


Chorus
------

E [-----------------------------------------------------------------]
B [-----------------------------------------------------------------]
G [---------------------------------9-9-9-9-9-9-9-9-7-7-7-7-7-7-7-7-]
D [-7-7-7-7-7-7-7-7-9-9-9-9-9-9-9-9-9-9-9-9-9-9-9-9-7-7-7-7-7-7-7-7-]
A [-7-7-7-7-7-7-7-7-9-9-9-9-9-9-9-9-7-7-7-7-7-7-7-7-5-5-5-5-5-5-5-5-]
E [-5-5-5-5-5-5-5-5-7-7-7-7-7-7-7-7---------------------------------]

play three times then play...

E [---------------------------------------]
B [---------------------------------------]
G [---------------------------------9-----]
D [-7-7-7-7-7-7-7-7-9-9-9-9-9-9-9-9-9-----]
A [-7-7-7-7-7-7-7-7-9-9-9-9-9-9-9-9-7-----]
E [-5-5-5-5-5-5-5-5-7-7-7-7-7-7-7-7-------]

hold final E5 chord whilst second guitar plays...

E [------------------------------------------]
B [-5---5/12-15-15-13p12-12---12\7---7-8p7\5-]
G [------------------------------------------]
D [------------------------------------------]
A [------------------------------------------]
E [------------------------------------------]

E [------------------------------15------14----12-]
B [-5---5/12-15-15-13p12-12---12------12----12----]
G [-----------------------------------------------]
D [-----------------------------------------------]
A [-----------------------------------------------]
E [-----------------------------------------------]


Verse 2
-------

Guitar 1

E [-12----12----12----12----12----12----12----12------10---10---10---10---10---10---10---10-]
B [----12----12----12----12----12----12----12----12---12---12---12---12---12---12---12---12-]
G [-----------------------------------------------------------------------------------------]
D [-----------------------------------------------------------------------------------------]
A [-----------------------------------------------------------------------------------------]
E [-----------------------------------------------------------------------------------------]

E [-12----12----12----12----12----12----15----14------10---10---10---10---10---10---10---10-]
B [----12----12----12----12----12----12----12----12---12---12---12---12---12---12---12---12-]
G [-----------------------------------------------------------------------------------------]
D [-----------------------------------------------------------------------------------------]
A [-----------------------------------------------------------------------------------------]
E [-----------------------------------------------------------------------------------------]

E [----12----15----12----15----12----15----12----15-]
B [-12----12----12----12----12----12----12----12----]
G [-------------------------------------------------]
D [-------------------------------------------------] (x4)
A [-------------------------------------------------]
E [-------------------------------------------------]


Guitar 2 (payed over x4 repeated above riff)
--------

E [------------------------------------------]
B [-5---5/12-15-15-13p12-12---12\7---7-8p7\5-]
G [------------------------------------------]
D [------------------------------------------]
A [------------------------------------------]
E [------------------------------------------]

E [------------------------------15------14----12-]
B [-5---5/12-15-15-13p12-12---12------12----12----]
G [-----------------------------------------------]
D [-----------------------------------------------]
A [-----------------------------------------------]
E [-----------------------------------------------]


Chorus
------

E [-----------------------------------------------------------------]
B [-----------------------------------------------------------------]
G [---------------------------------9-9-9-9-9-9-9-9-7-7-7-7-7-7-7-7-]
D [-7-7-7-7-7-7-7-7-9-9-9-9-9-9-9-9-9-9-9-9-9-9-9-9-7-7-7-7-7-7-7-7-]
A [-7-7-7-7-7-7-7-7-9-9-9-9-9-9-9-9-7-7-7-7-7-7-7-7-5-5-5-5-5-5-5-5-]
E [-5-5-5-5-5-5-5-5-7-7-7-7-7-7-7-7---------------------------------]


Solo
----

all notes tremelo picked

E [--------------------------------]
B [--------------------------------]
G [-9---11--12---14---12---11/19---]
D [--------------------------------] (x3)
A [-7---9---10---12---10---9-------]
E [--------------------------------]

E [------------------------------------]
B [------------------------------------]
G [-9---11--12---14---12---11--9---7---]
D [------------------------------------]
A [-7---9---10---12---10---9---7---5---]
E [------------------------------------]


after solo play...

Guitar 1

E [-----------------------------------------------]
B [-12---x-x-12-x-x-12-x-x-12-x-x-12-x-x-12----12-]
G [--9---x-x--9-x-x--9-x-x--9-x-x--9-x-x-12----11-]
D [-----------------------------------------------]
A [-----------------------------------------------]
E [-----------------------------------------------]

E [-----------------------------------------------]
B [-12---x-x-12-x-x-12-x-x-12-x-x-12-x-x-12-12-12-]
G [--9---x-x--9-x-x--9-x-x--9-x-x--9-x-x-11-12-11-]
D [-----------------------------------------------]
A [-----------------------------------------------]
E [-----------------------------------------------]

E [------------------------------------------------]
B [-12---x-x-12-x-x-12-x-x-12-x-x-12-x-x-12-----12-]
G [--9---x-x--9-x-x--9-x-x--9-x-x--9-x-x-12-----11-]
D [------------------------------------------------]
A [------------------------------------------------]
E [------------------------------------------------]

E [------------------------------------------------]
B [-12---x-x-12-x-x-12-x-x-12-x-x-12---12-------12-]
G [--9---x-x--9-x-x--9-x-x--9-x-x--9---12-------11-]
D [------------------------------------------------]
A [------------------------------------------------]
E [------------------------------------------------]

E [-----------------------------------------------------------------]
B [-----------------------------------------------------------------]
G [-9---9---9---9---9---9---11--11--9---9---9---9---9---9---14---11-]
D [-----------------------------------------------------------------]
A [-7---7---7---7---7---7---9---9---7---7---7---7---7---7---12---10-]
E [-----------------------------------------------------------------]

(--guitar-2-fill--)
E [-------------------------------------------------------------------]
B [-------------------------------------------------------------------]
G [-9---9---9---9---9---9---14-12-14---9---9---9---9------------------]
D [-------------------------------------------------------------------]
A [-7---7---7---7---7---7---12-10-12---7---7---7---7------------------]
E [-------------------------------------------------------------------]

E [-----------------------------------------------------------------------------]
B [-----------------------------------------------------------------------------]
G [-x-9-x-9-x-9-x-9-x-11-x-11-x-11-x-11-x-12-x-12-x-12-x-12-x-14-x-14-x-14-x-14-]
D [-----------------------------------------------------------------------------]
A [-x-7-x-7-x-7-x-7-x-9--x-9--x-9--x-9--x-10-x-10-x-10-x-10-x-12-x-12-x-12-x-12-]
E [-----------------------------------------------------------------------------]

E [---------------------------------------------------------------------------------]
B [---------------------------------------------------------------------------------]
G [-x-16-x-16-x-16-x-16-x-17-x-17-x-17-x-17-x-19-x-19-x-19-x-19-x-21-x-21-x-21-x-21-]
D [---------------------------------------------------------------------------------]
A [-x-14-x-14-x-14-x-14-x-15-x-15-x-15-x-15-x-17-x-17-x-17-x-17-x-19-x-19-x-19-x-19-]
E [---------------------------------------------------------------------------------]


Guitar 2

(--guitar-2-fill--)

E [----15---14---12---]
B [-12----------------]
G [-------------------]
D [-------------------]
A [-------------------]
E [-------------------]

after fill play below riff over guitar 1's ascending octaves

E [-12----12----12----12----]
B [----12----12----12----12-]
G [-------------------------]
D [-------------------------]
A [-------------------------]
E [-------------------------]


Chorus
------

E [-----------------------------------------------------------------]
B [-----------------------------------------------------------------]
G [---------------------------------9-9-9-9-9-9-9-9-7-7-7-7-7-7-7-7-]
D [-7-7-7-7-7-7-7-7-9-9-9-9-9-9-9-9-9-9-9-9-9-9-9-9-7-7-7-7-7-7-7-7-]
A [-7-7-7-7-7-7-7-7-9-9-9-9-9-9-9-9-7-7-7-7-7-7-7-7-5-5-5-5-5-5-5-5-]
E [-5-5-5-5-5-5-5-5-7-7-7-7-7-7-7-7---------------------------------]


Outro
-----

Guitar 1

E [-----------------------------------------------------------------]
B [-----------------------------------------------------------------]
G [-5-5-5-5-5-5-5-5-4-4-4-4-4-4-4-4---------------------------------]
D [-5-5-5-5-5-5-5-5-4-4-4-4-4-4-4-4-2-2-2-2-2-2-2-2-2-2-2-2-2-2-2---]
A [-3-3-3-3-3-3-3-3-2-2-2-2-2-2-2-2-2-2-2-2-2-2-2-2-2-2-2-2-2-2-2---]
E [---------------------------------0-0-0-0-0-0-0-0-0-0-0-0-0-0-0---]


Guitar 2 (tremelo pick)

E [-----------------------------------------------------------------]
B [-----------------------------------------------------------------]
G [-12--------------14--------------16------------21----------------]
D [-----------------------------------------------------------------]
A [-10--------------12--------------14------------19----------------]
E [-----------------------------------------------------------------]

Song info
Monster
The Automatic
2001
  • Electronic
  • Rock
  • House
  • Indie Rock
Similar songs
Going To Town - The Afghan Whigs
Girls Who Play Guitars - Maxïmo Park
Ocean Drive - Duke Dumont
Radioactive - Imagine Dragons

Hi! Hope you enjoy backing track experience.
If you want to help us in the development of the project, feel free to donate!