Boys - The Beatles
00:00 / 00:00
Tabs and lyrics
Tunning: Standard (E A D G B e)
Boys

by Luther Dixon and Wes Farrell
from Please Please Me

Intro:
B7 A7
-|----------------------------|-------5----------5---------|
-|-------9-----7--------------|----------------------------|
-|-------9-----7p8------------|6-------------7------6------|
-|------------------9---------|7-------------7------7------|
-|----------------------------|----------------------------|
-|----------------------------|----------------------------|
^ ^ ^ ^ ^ ^ ^ ^
E7 B7
-|-------0--------------------|----------------------------|
-|-------0------2---2---------|----------------------------|
-|--------------2---0---------|---2------------------------|
-|---------------------2--0---|----------------------------|
-|----------------------------|2---------------------------|
-|----------------------------|----------------------------|
^ ^ ^ ^ ^ ^ ^ ^


B7
I've been told when a boy kiss a girl

Take a trip around the world Hey
A7
Hey Hey
E7
Hey Hey
B7 A7
Hey Yes they say you do
E7 B7
Well I talk about
E7
boys Don't you know I mean

boys Well I talk about boys
A7
now Ahhhhhhhhh
E7
boys Well I talk about
B7 A7
boys now What a bundle of joy
E7
Alright George

Solo:

B7 E7
-|----------------------------|----------------------------|----------------------------|
-|---8/9-9---8-/8-/8--/8--/8--|8------------8----8---------|---3---3--3---3--3----------|
-|-----------9-/9-/9--/9--/9--|-------8-----8h9--8h9-------|---4---4--4---4--4---2--0---|
-|----------------------------|----------------------------|----------------------------|
-|----------------------------|----------------------------|----------------------------|
-|----------------------------|----------------------------|----------------------------|
^ ^ ^ ^ ^ ^ ^ ^

-|----------------------------|---12------12-----12----12--|
-|----------------------------|-------9-----10-----11------|
-|----------------------------|----------------------------|
-|2------2--------------------|----------------------------|
-|----------------------------|----------------------------|
-|----------------------------|----------------------------|
^ ^ ^ ^ ^ ^ ^ ^
A7
-|-----------------15---------|15----------------------------|
-|12---------------13b15-13b15|13b15-------------------14----|
-|----------------------------|------------------------13b15-|
-|----------------------------|------------------------------|
-|----------------------------|------------------------------|
-|----------------------------|------------------------------|
^ ^ ^ ^ ^ ^ ^ ^
E7
-|----------------------------|----------------------------|
-|14---14---14------12--------|----------------------------|
-|13b1513b1513b15---12h13-----|----------------------------|
-|------------------------14--|14--------------------------|
-|----------------------------|----------------------------|
-|----------------------------|----------------------------|
^ ^ ^ ^ ^ ^ ^ ^

B7 A7
-|--------------12-----12-----|12-----12-------------------|
-|12-----12-----12-----12-----|12-----12-------------------|
-|141b6--14b16--14b16--14b16--|14b16--14b16--16r14-12------|
-|----------------------------|----------------------14----|
-|----------------------------|----------------------------|
-|----------------------------|----------------------------|
^ ^ ^ ^ ^ ^ ^ ^
E7 B7
-|-------0------0------0------|0---------------------------|
-|-------0----0-0----0-0----0-|0----0----------------------|
-|-------4------3------2------|0---------------------------|
-|----------------------------|-------2------2p0-----------|
-|----------------------------|------------------2---------|
-|----------------------------|----------------------------|
^ ^ ^ ^ ^ ^ ^ ^


E7
My girl says when I kiss her lips

Get the feeling all through her fingertips Hey
A7
Hey Hey
E7
Hey Hey
B7 A7
Hey Yeah she said you do
E7 B7
Well I talk about
E7
boys Don't you know I mean

boys Well I talk about boys
A7
now Ahhhhhhhhh
E7
boys Well I talk about
B7 A7 E7
boys now What a bundle of joy
E7
My girl says when I kiss her lips

Get the feeling all through her fingertips Hey
A7
Hey Hey
E7
Hey Hey
B7 A7
Hey Yeah she said you do
E7 B7
Well I talk about
E7
boys Don't you know I mean

boys Well I talk about boys
A7
now Ahhhhhhhhh
E7
boys Well I talk about
B7 A7
boys now What a bundle of joy
E7 B7
Ah yeah!
E7
boys Don't you know I mean

boys Oh
A7
boys Ahhhhh Ahhhhhh
E7
Well I talk about
Tunning: Standard (E A D G B e)
--------------------------------------------------------

THE BEATLES - BOYS (Dixon/Farrell) From PLEASE PLEASE ME
album. Released on March, 22nd 1963.

--------------------------------------------------------

Tabbed by:PJVillanueva






Pete Best singed this, so Ringo should have the number too.
Another Shirelles cover, for long in their act, The Beatles
made another rocker of this number. Ringo gives an energetic
vocal delivery, but among the strong and original points are
George's E chord on the dowmbeats in stop time (he seems to
be muting D and G strings), and that fine double-stop solo.
(rockabilly really was George's thing). John's guitar doubles
Paul's bass on the choruses and solo.






I been told when a boy kiss a girl,
Take a trip around the world,
Hey, hey, (bop shuop, m'bop bop shuop)
Hey, hey, (bop shuop, m'bop bop shuop)
Hey, hey, (bop shuop) yeah, she say you do. (Bop shuop)

My girl says when I kiss her lips,
Gets a thrill through her fingertips,
Hey, hey, (bop shuop, m'bop bop shuop)
Hey, hey, (bop shuop, m'bop bop shuop)
Hey, hey, (bop shuop) yeah, she say you do. (Bop shuop)

Well, I talk about boys,
Don't you know I mean boys,
Well, I talk about boys, now,
Aaaaahhh, boys,
Well, I talk about boys, now,
What a bundle of joy! (Allright, George!)

My girl says when I kiss her lips,
Gets a thrill through her fingertips,
Hey, hey, (bop shuop, m'bop bop shuop)
Hey, hey, (bop shuop, m'bop bop shuop)
Hey, hey, (bop shuop) yeah, she say you do. (Bop shuop)

Well, I talk about boys,
Don't you know I mean boys,
Well, I talk about boys, now,
Aaaaaaaaaaaaaaaaaaaahhh
Well, I talk about boys, now,
What a bundle of joy!
Woah, woah, uuuh, yeaaaaaaahhh, boys (yeah yeah, boys)
Don't you know I mean boys (yeah yeah, boys)
Wooooooooooooohhh, boys (yeah yeah, boys)
Aaaaaaaaaaaaaaahaaaaa (yeah yeah, boys)
Well, I talk about boys, now




INTRO

4/4 time

x x x

e|------- ------- ------- -------|------- ------- ------- -------|
B|-------------------------------|-------------------------------|
G|-------------------------------|-------------------------------|
D|-------------------------------|-------------------------------|
A|-------------------------------|-------------------------------|
E|-------------------------------|--------------------4---5---6--|


B7 A7
e|------- 7------ 7---7-- 7------|5------ 5------ 5------ 3------|
B|-------10------10--10--10------|8-------8-------8-------8------|
G|--------8-------8---8---8------|6-------6-------6-------6------|
D|--------x-------x---x---x------|x-------x-------x-------x------|
A|--------9-------9---9---9------|7-------7-------7-------7------|
E|--------7-------7---7---7------|5-------5-------5-------5------|

e|------- ------- ------- -------|------- 5------ ----5-- -------|
B|--------9-------7--------------|----------------3--------------|
G|--------9-------7H8------------|-------------------------------|
D|--------9-----------9----------|-------------------------------|
A|-------------------------------|-------------------------------|
E|7------------------------------|-------------------------------|


x x X x x x x
E A E B
e|------- 0------ 0------ 0------|----2-- 2---2-- 2---2-- 2------|
B|--------0-------2-------0------|----4---4---4---4---4---4------|
G|--------1-------2-------1------|----4---4---4---4---4---4------|
D|--------2-------2-------2------|----4---4---4---4---4---4------|
A|--------2-------0-------2------|----2---2---2---2---2---2------|
E|--------0---------------0------|-------------------------------|

e|------- 0------ ------- -------|------- ------- ------- -------|
B|-------------------------------|-------------------------------|
G|----------------4\2-0----------|----2---2---2---2---2---2------|
D|------------------------2---0--|--------1---1---1---1---1------|
A|-------------------------------|2-------2---2---2---2---2------|
E|-------------------------------|-------------------------------|

X xxx x X xxx x
00:07
E5
e|------- ------- ------- -------|------- ------- ------- -------|
B|0------------------------------|0------------------------------|
G|x------------------------------|x------------------------------|
D|x------------------------------|x------------------------------|
A|2------------------------------|2------------------------------|
E|0------------------------------|0------------------------------|
I been told when boy kiss
a a girl

X x x x x x x x x x x x x x x

e|0------ ------- ------- -------|------- ------- ------- -------|
B|0------------------------------|-------------------------------|
G|x------------------------------|-------------------------------|
D|x------------------------------|-------------------------------|
A|2------------------------------|----------------2---2----------|
E|0------------------------------|----------------0---0----------|
Take trip around the world, Hey
a
00:13
A G A G A G A
e|------- 9------ 7---9-- 7---7--|------- 9------ 7---9-- -------|
B|-------10-------8--10---8---8--|-------10-------8--10----------|
G|--------9-------7---9---7---7--|--------9-------7---9----------|
D|-------------------------------|-------------------------------|
A|-------------------------------|-------------------------------|
E|-------------------------------|-------------------------------|
hey Hey
(bop shuop, m ' bop bop shuop)
e|------- ------- ------- -------|------- ------- ------- -------|
B|--------7-------5--------------|--------7-------5--------------|
G|--------7-------6--------------|--------7-------6--------------|
D|--------7-----------7----------|--------7-----------7----------|
A|-------------------------------|-------------------------------|
E|-------------------------------|-------------------------------|



E D E D E
e|------- ------- ------- -------|------- ------- ------- -------|
B|--------9-------7---9----------|9-------9-------7---9----------|
G|--------9-------7---9----------|9-------9-------7---9----------|
D|--------9-------7---9----------|9-------9-------7---9--------/-|
A|-------------------------------|-----------------------------/-|
E|-------------------------------|-----------------------------/-|
hey Hey
(bop shuop, m ' bop bop shuop)
e|------- ------- ------- -------|------- ------- ------- -------|
B|--------2-------0--------------|--------2-------0--------------|
G|--------2-------0--------------|--------2-------0--------------|
D|--------2-----------2----------|--------2-----------2----------|
A|-------------------------------|-------------------------------|
E|-------------------------------|-------------------------------|



B5 B7 A7
e|------- 7------ 7---7-- -------|5------ 5------ 5---5-- 5------|
B|-------10------10--10----------|8-------8-------8---8---8------|
G|--------8-------8---8----------|6-------6-------6---6---6------|
D|9-------x-------x---x----------|x-------x-------x---x---x------|
A|9-------9-------9---9----------|7-------7-------7---7---7------|
E|7-------7-------7---7-------0--|5-------5-------5---5---5------|
hey Yeah, she say you do
(bop shuop, m ' bop bop shuop)
e|------- ------- ------- -------|------- ------- ------- -------|
B|--------9-------7--------------|--------7-------5--------------|
G|--------9-------8--------------|--------7-------6--------------|
D|--------9-----------9----------|--------7-----------7----------|
A|-------------------------------|-------------------------------|
E|-------------------------------|-------------------------------|


x x x x x x x x x x x x

e|0------ 0------ 0---0-- ----0--|----7-- 7---7-- 7---7-- 7------|
B|0-------0-------0---0-------0--|----7---7---7---7---7---7------|
G|1-------1-------1---1-------1--|----8---8---8---8---8---8------|
D|2-------2-------2---2-------2--|----9---9---9---9---9---9------|
A|2-------2-------2---2-------2--|----9---9---9---9---9---9------|
E|0-------0-------0---0-------0--|----7---7---7---7---7---7------|
(bop shuop)
e|------- ------- ------- -------|------- ------- ------- -------|
B|--------2-------0--------------|-------------------------------|
G|--------2-------0--------------|-------------------------------|
D|--------2-----------2----------|-------------------------------|
A|------------------------------/|9-----------9-------9---9------|
E|------------------------------/|7-----------7-------7---7------|


00:26
X xxx x X xxx x

e|------- ------- ------- -------|------- ------- ------- -------|
B|0------------------------------|0------------------------------|
G|x------------------------------|x------------------------------|
D|x------------------------------|x------------------------------|
A|2------------------------------|2------------------------------|
E|0------------------------------|0------------------------------|
My girl says when kiss lips
I her

X x x x x x x x x x x x x

e|------- ------- ------- -------|------- ------- ------- -------|
B|0------------------------------|-------------------------------|
G|1------------------------------|--------1---1---1-------1------|
D|2------------------------------|--------2---2---2-------2------|
A|2------------------------------|--------2---2---2-------2------|
E|0------------------------------|--------0---0---0-------0------|
Gets thrill through fingertips, Hey
a her
e|------- ------- ------- -------|------- ------- ------- -------|
B|0------------------------------|-------------------------------|
G|x------------------------------|------------1-----------1------|
D|x------------------------------|----0---------------0----------|
A|2------------------------------|0H2----------------------------|
E|0------------------------------|-------------------------------|


00:33

e|------- 9------ 7---9-- 7---7--|------- 9------ 7---9-- -------|
B|-------10-------8--10---8---8--|-------10-------8--10----------|
G|--------9-------7---9---7---7--|--------9-------7---9----------|
D|-------------------------------|-------------------------------|
A|-------------------------------|-------------------------------|
E|-------------------------------|-------------------------------|
hey Hey
(bop shuop, m ' bop bop shuop)
e|------- ------- ------- -------|------- ------- ------- -------|
B|--------7-------5--------------|--------7-------5--------------|
G|--------7-------6--------------|--------7-------6--------------|
D|--------7-----------7----------|--------7-----------7----------|
A|-------------------------------|-------------------------------|
E|-------------------------------|-------------------------------|




e|------- ------- ------- -------|------- ------- ------- -------|
B|--------9-------7---9---7---7--|--------9-------7---9----------|
G|--------9-------7---9---7---7--|--------9-------7---9----------|
D|--------9-------7---9---7---7--|--------9-------7---9----------|
A|-------------------------------|------------------------------/|
E|-------------------------------|------------------------------/|
hey Hey
(bop shuop, m ' bop bop shuop)
e|------- ------- ------- -------|------- ------- ------- -------|
B|--------2-------0--------------|--------2-------0--------------|
G|--------2-------0--------------|--------2-------0--------------|
D|--------2-----------2----------|--------2-----------2----------|
A|-------------------------------|-------------------------------|
E|-------------------------------|-------------------------------|




e|------- 7------ 7---7-- -------|5------ 5------ 5---5-- 5------|
B|-------10------10--10----------|8-------8-------8---8---8------|
G|--------8-------8---8----------|6-------6-------6---6---6------|
D|x-------x-------x---x-------x--|x-------x-------x---x---x------|
A|9-------9-------9---9-------x--|7-------7-------7---7---7------|
E|7-------7-------7---7-------x--|5-------5-------5---5---5------|
hey Yeah, she say you do
(bop shuop, m ' bop bop shuop)
e|------- ------- ------- -------|------- ------- ------- -------|
B|-------------------------------|-------------------------------|
G|-------------------------------|-------------------------------|
D|-------------------------------|-------------------------------|
A|9-------9-------9---9-------x--|7-------7-------7---7---7------|
E|7-------7-------7---7-------x--|5-------5-------5---5---5------|




e|0------ 0------ 0---0-- ----0--|----7-- 7---7-- 7---7-- 7------|
B|0-------0-------0---0-------0--|----7-- 7---7-- 7---7-- 7------|
G|1-------1-------1---1-------1--|----8---8---8---8---8---8------|
D|2-------2-------2---2-------2--|----9---9---9---9---9---9------|
A|2-------2-------2---2-------2--|----9---9---9---9---9---9------|
E|0-------0-------0---0-------0--|----7---7---7---7---7---7------|
Well, I talk
(bop shuop) about
e|------- ------- ------- -------|------- ------- ------- -------|
B|-------------------------------|-------------------------------|
G|-------------------------------|-------------------------------|
D|-------------------------------|-------------------------------|
A|2-------2-------2---2-------2--/9---9---9---9---9---9---9---9--|
E|0-------0-------0---0-------0--/7---7---7---7---7---7---7---7--|


00:46
E
e|------- ------- ------- -------|------- ------- ------- -------|
B|-------------------------------|-------------------------------|
G|-------------------------------|-------------------------------|
D|----------------0---0----------|----------------0---0----------|
A|------------2-----------4---2--|------------2-----------4---2--|
E|0---0---4----------------------|0---0---4----------------------|
boys Don't you know mean
(Yeah, yeah, boys) I
e|------- ------- ------- -------|------- ------- ------- -------|
B|-------------------------------|-------------------------------|
G|-------------------------------|-------------------------------|
D|-------------------------------|-------------------------------|
A|-------------------------------|-------------------------------|
E|0---0--------------------------|0---0--------------------------|

e|------- ------- ------- -------|------- ------- ------- -------|
B|--------2-------0--------------|--------2-------0--------------|
G|--------2-------1--------------|--------2-------0--------------|
D|--------2-------2--------------|--------2-----------2----------|
A|-------------------------------|-------------------------------|
E|-------------------------------|-------------------------------|




e|------- ------- ------- -------|------- ------- ------- -------|
B|-------------------------------|-------------------------------|
G|-------------------------------|-------------------------------|
D|----------------0---0----------|----------------0---0----------|
A|------------2-----------4---2--|------------2-----------4---2--|
E|0---0---4----------------------|0---0---4----------------------|
boys Well, talk boys
(Yeah, yeah, boys) I about
e|------- ------- ------- -------|------- ------- ------- -------|
B|-------------------------------|-------------------------------|
G|-------------------------------|-------------------------------|
D|-------------------------------|-------------------------------|
A|-------------------------------|----------------------------0--|
E|0---0--------------------------|0---0-------0-------0---0------|

e|------- ------- ------- -------|------- ------- ------- -------|
B|--------2-------0--------------|--------2-------0--------------|
G|--------2-------0--------------|--------2-------0--------------|
D|--------2-----------2----------|--------2-----------2----------|
A|-------------------------------|-------------------------------|
E|-------------------------------|-------------------------------|



A
e|------- ------- ------- -------|------- ------- ------- -------|
B|-------------------------------|-------------------------------|
G|----------------0---0----------|----------------0---0----------|
D|------------2-----------4---2--|------------2-----------4---2--|
A|0---0---4----------------------|0---0---4----------------------|
E|-------------------------------|-------------------------------|
now Aaaaaaaaaaaaaaaaaaaaaaahhhh
(Yeah, yeah, boys)
e|------- ------- ------- -------|------- ------- ------- -------|
B|-------------------------------|-------------------------------|
G|-------------------------------|-------------------------------|
D|-------------------------------|-------------------------------|
A|----0--------------------------|0---0-------0---0---0----------|
E|-------------------------------|-------------------------------|

e|------- ------- ------- -------|------- ------- ------- -------|
B|--------7-------5--------------|--------7-------5--------------|
G|--------7-------6--------------|--------7-------6--------------|
D|--------7-----------7----------|--------7-----------7----------|
A|-------------------------------|-------------------------------|
E|-------------------------------|-------------------------------|



E
e|------- ------- ------- -------|------- ------- ------- -------|
B|-------------------------------|-------------------------------|
G|-------------------------------|-------------------------------|
D|----------------0---0----------|----------------0---0----------|
A|------------2-----------4------|------------2-----------4---2--|
E|0---0---4----------------------|0---0---4----------------------|
boys Well talk boys
(Yeah, yeah, boys) I about
e|------- ------- ------- -------|------- ------- ------- -------|
B|-------------------------------|-------------------------------|
G|-------------------------------|-------------------------------|
D|-------------------------------|-------------------------------|
A|-------------------------------|-------------------------------|
E|0---0--------------------------|0---0-------0------------------|

e|------- ------- ------- -------|------- 7------ ------- -------|
B|--------2-------0--------------|--------0---0------------------|
G|--------2-------1--------------|-------------------------------|
D|--------2-----------2----------|-------------------------------|
A|-------------------------------|--------------------2---4---5--|
E|-------------------------------|--------------------4---5---6--|



B A
e|------- ------- ------- -------|------- ------- ------- -------|
B|-------------------------------|-------------------------------|
G|----------------2---2---1------|----------------0---0----------|
D|--------1---4------------------|------------2-----------4---2--|
A|2---2--------------------------|0---0---4----------------------|
E|-------------------------------|-------------------------------|
now What bundle of joy!
(Yeah, yeah, boys) a
e|------- ------- ------- -------|------- ------- ------- -------|
B|-------------------------------|-------------------------------|
G|-------------------------------|-------------------------------|
D|-------------------------------|-------------------------------|
A|2---2-----------------------0--|0---0-------0------------------|
E|-------------------------------|-------------------------------|

e|------- ------- ------- -------|------- ------- ------- -------|
B|-------------------------------|-------------------------------|
G|-------------------------------|-------------------------------|
D|-------------------------------|-------------------------------|
A|6-------6-------------------6--|4-------4-------4---4----------|
E|7-------7-------------------7--|5-------5-------5---5----------|


x x x x x x x x x
E B5
e|------- ------- ------- -------|------- ------- ------- -------|
B|-------------------------------|-------------------------------|
G|-------------------------------|4-------4-------4---4-------4--|
D|----------------0---0----------|4-------4-------4---4-------4--|
A|------------2-----------4---0--|2-------2-------2---2-------2--|
E|0---0---4----------------------|-------------------------------|
Allright, George!
e|------- ------- ------- -------|------- ------- ------- -------|
B|-------------------------------|-------------------------------|
G|-------------------------------|-------------------------------|
D|-------------------------------|-------------------------------|
A|-------------------------------|-------------------------------|
E|0---0--------------------------|-------------------------------|

e|------- ------- ------- -------|------- ----3-- ------- -------|
B|-------------------------------|--/-5---------/-5-/-5-----/-5--|
G|-------------------------------|-------------------------------|
D|-------------------------------|-------------------------------|
A|-------------------------------|-------------------------------|
E|-------------------------------|-------------------------------|


SOLO
01:06

e|------- ------- ------- -------|------- ------- ------- -------|
B|-------------------------------|-------------------------------|
G|-------------------------------|-------------------------------|
D|-------------------------------|-------------------------------|
A|----------------2---2---0------|----------------2---2---0------|
E|0---0---4---0---------------4--|0---0---4---0---------------4--|

e|3------ ------- ----3-- -------|------- ------- ------- -------|
B|------/-5-----/-5--------------|----3---3---3---3---3----------|
G|-------------------------------|----4---4---4---4---4---4\2-0--|
D|-------------------------------|-------------------------------|
A|-------------------------------|-------------------------------|
E|-------------------------------|-------------------------------|




e|------- ------- ------- -------|------- ------- ------- -------|
B|-------------------------------|-------------------------------|
G|-------------------------------|-------------------------------|
D|----------------0---0----------|----------------0---0----------|
A|------------2-----------4---2--|------------2-----------4---2--|
E|0---0---4----------------------|0---0---4----------------------|

e|------- ------- ------- -------|---12-- -----12 12---12 12---12|
B|-------------------------------|--------9-------10------11-----|
G|-------------------------------|-------------------------------|
D|2-------2----------------------|-------------------------------|
A|-------------------------------|-------------------------------|
E|-------------------------------|-------------------------------|




e|------- ------- ------- -------|------- ------- ------- -------|
B|-------------------------------|-------------------------------|
G|----------------0---0----------|----------------0---0----------|
D|------------2-----------4---2--|------------2-----------4---2--|
A|0---0---4----------------------|0---0---4----------------------|
E|-------------------------------|-------------------------------|

e|------- ------- ---15b- ---15b-|15b---- ------- ------- -------|
B|12-----------------14b-----14b-|14b------------------------14b-|
G|-------------------------------|---------------------------14b-|
D|-------------------------------|-------------------------------|
A|-------------------------------|-------------------------------|
E|-------------------------------|-------------------------------|




e|------- ------- ------- -------|------- ------- ------- -------|
B|-------------------------------|-------------------------------|
G|-------------------------------|-------------------------------|
D|----------------0---0----------|----------------0---0----------|
A|------------2-----------4---2--|------------2-----------4---2--|
E|0---0---4----------------------|0---0---4----------------------|

e|------- ------- ------- -------|------- ------- ------- -------|
B|14b---14b---14b----/-12--------|-------------------------------|
G|14b---14b---14b----/-13--------|-------------------------------|
D|---------------------------14--|14-----------------------------|
A|-------------------------------|-------------------------------|
E|-------------------------------|-------------------------------|




e|------- ------- ------- -------|------- ------- ------- -------|
B|-------------------------------|-------------------------------|
G|----------------2---2---1------|----------------0---0----------|
D|--------1---4---------------4--|------------2-----------4---2--|
A|2---2--------------------------|0---0---4----------------------|
E|-------------------------------|-------------------------------|

e|------- 12----- 12----- 12-----|12----- 12----- ------- -------|
B|12------12------12------12-----|12------12---------------------|
G|15B16---16------16------16-----|16-----R15-----1514-12---------|
D|-------------------------------|-----------------\------14-----|
A|-------------------------------|-------------------------------|
E|-------------------------------|-------------------------------|


x x x x x

e|------- ------- ------- -------|------- ------- ------- -------|
B|-------------------------------|-------------------------------|
G|-------------------------------|----4---4---4---4--------------|
D|----------------0---0----------|----4---4---4---4--------------|
A|------------2-----------4---0--|----2---2---2---2--------------|
E|0---0---4----------------------|-------------------------------|

e|------- 0------ ------- -------|------- ------- ------- -------|
B|--------0-----0-0-----0-0-----0|0-----0------------------------|
G|----------------3-------2------|0------------------------------|
D|-------------------------------|--------2-------0--------------|
A|-------------------------------|------------------------2------|
E|-------------------------------|-------------------------------|


01:26

e|------- ------- ------- -------|------- ------- ------- -------|
B|0------------------------------|0------------------------------|
G|x------------------------------|x------------------------------|
D|x------------------------------|x------------------------------|
A|2------------------------------|2------------------------------|
E|0------------------------------|0------------------------------|
My girl says when kiss lips
I her

x x x x x x x x x x x x x x

e|------- ------- ------- -------|----7-- ------- 7------ -------|
B|0------------------------------|----7-----------7--------------|
G|x------------------------------|----7-----------7--------------|
D|x------------------------------|----6-----------6--------------|
A|2------------------------------|----7-----------7--------------|
E|0------------------------------|-------------------------------|
Gets thrill through fingertips, Hey
a her
(Aaaaaaaaaaaaaaaaaaaaahhhhhhh


01:33

e|------- 5------ 3---5-- -------|5------ 5------ 3---5-- -------|
B|--------5-------3---5----------|5-------5-------3---5----------|
G|--------6-------4---6----------|6-------6-------4---6----------|
D|--------7-------5---7----------|7-------7-------5---7----------|
A|--------7-------5---7----------|7-------7-------5---7----------|
E|--------5-------3---5----------|5-------5-------3---5----------|
hey Hey
(bop shuop, m ' bop bop shuop)
e|------- ------- ------- -------|------- ------- ------- -------|
B|--------7-------5--------------|--------7-------5--------------|
G|--------7-------6--------------|--------7-------6--------------|
D|--------7-----------7----------|--------7-----------7----------|
A|-------------------------------|-------------------------------|
E|-------------------------------|-------------------------------|




e|------- ------- ------- -------|------- ------- ------- -------|
B|--------9-------7---9---7---7--|--------9-------7---9----------|
G|--------9-------7---9---7---7--|--------9-------7---9----------|
D|--------9-------7---9---7---7--|--------9-------7---9----------|
A|-------------------------------|------------------------------/|
E|-------------------------------|------------------------------/|
hey Hey
(bop shuop, m ' bop bop shuop)
e|------- ------- ------- -------|------- ------- ------- -------|
B|--------2-------0--------------|--------2-------0--------------|
G|--------2-------0--------------|--------2-------0--------------|
D|--------2-----------2----------|--------2-----------2----------|
A|-------------------------------|-------------------------------|
E|-------------------------------|-------------------------------|




e|------- 7------ 7---7-- 7------|5------ 5------ 5---5-- 5------|
B|--------7-------7---7---7------|8-------8-------8---8---8------|
G|--------8-------8---8---8------|6-------6-------6---6---6------|
D|9-------9-------9---9---9------|x-------x-------x---x---x------|
A|9-------9-------9---9---9------|7-------7-------7---7---7------|
E|7-------7-------7---7---7------|5-------5-------5---5---5------|
hey Yeah, she say you do
(bop shuop, m ' bop bop shuop)
e|------- ------- ------- -------|------- ------- ------- -------|
B|-------------------------------|-------------------------------|
G|-------------------------------|-------------------------------|
D|-------------------------------|-------------------------------|
A|9-------9-------9---9-------x--|7-------7-------7---7---7------|
E|7-------7-------7---7-------x--|5-------5-------5---5---5------|




e|0---0-- 0------ 0---0-- ----0--|7-----7 7---7-- ----7-- 7------|
B|0---0---0-------0---0-------0--|7-----7-7---7-------7---7------|
G|1---1---1-------1---1-------1--|8-----8-8---8-------8---8------|
D|2---2---2-------2---2-------2--|9-----9-9---9-------9---9------|
A|2---2---2-------2---2-------2--|9-----9-9---9-------9---9------|
E|0---0---0-------0---0-------0--|7-----7-7---7-------7---7------|
Well, I talk
(bop shuop) about
e|------- ------- ------- -------|------- ------- ------- -------|
B|-------------------------------|-------------------------------|
G|-------------------------------|-------------------------------|
D|-------------------------------|-------------------------------|
A|2-------2-------2---2-------2--|7/9---9-9---9-------9---9------|
E|0-------0-------0---0-------0--|5/7---7-7---7-------7---7------|


01:47

e|------- ------- ------- -------|------- ------- ------- -------|
B|-------------------------------|-------------------------------|
G|-------------------------------|-------------------------------|
D|----------------0---0----------|----------------0---0----------|
A|------------2-----------4---2--|------------2-----------4---2--|
E|0---0---4----------------------|0---0---4----------------------|
boys Don't you know mean
(Yeah, yeah, boys) I
e|------- ------- ------- -------|------- ------- ------- -------|
B|-------------------------------|-------------------------------|
G|-------------------------------|-------------------------------|
D|-------------------------------|-------------------------------|
A|-------------------------------|-------------------------------|
E|0---0---0-------0-------0---0--|0---0---0-------0---0---0---0--|

e|------- ------- ------- -------|------- ------- ------- -------|
B|--------2-------0--------------|--------2-------0--------------|
G|--------2-------0--------------|--------2-------0--------------|
D|--------2-----------2----------|--------2-----------2----------|
A|-------------------------------|-------------------------------|
E|-------------------------------|-------------------------------|




e|------- ------- ------- -------|------- ------- ------- -------|
B|-------------------------------|-------------------------------|
G|-------------------------------|-------------------------------|
D|----------------0---0----------|----------------0---0----------|
A|------------2-----------4---2--|------------2-----------4---2--|
E|0---0---4----------------------|0---0---4----------------------|
boys Well, talk boys
(Yeah, yeah, boys) I about
e|------- ------- ------- -------|------- ------- ------- -------|
B|-------------------------------|-------------------------------|
G|-------------------------------|-------------------------------|
D|-------------------------------|-------------------------------|
A|-------------------------------|-------------------------------|
E|0---0---0---0---0---0---0------|0---0---0---0---0---0---0---0--|

e|------- ------- ------- -------|------- ------- ------- -------|
B|--------2-------0--------------|--------2-------0--------------|
G|--------2-------0--------------|--------2-------0--------------|
D|--------2-----------2----------|--------2-----------2----------|
A|-------------------------------|-------------------------------|
E|-------------------------------|-------------------------------|


01:54

e|------- ------- ------- -------|------- ------- ------- -------|
B|-------------------------------|-------------------------------|
G|----------------0---0----------|----------------0---0----------|
D|------------2-----------4---2--|------------2-----------4---2--|
A|0---0---4----------------------|0---0---4----------------------|
E|-------------------------------|-------------------------------|
now Aaaaaaaaaaaaaaaaaaaaaaaaaaa
(Yeah, yeah, boys)
e|------- ------- ------- -------|------- ------- ------- -------|
B|-------------------------------|-------------------------------|
G|-------------------------------|-------------------------------|
D|-------------------------------|-------------------------------|
A|0---0-------0---------------0--|0---0-------0---------------0--|
E|-------------------------------|-------------------------------|

e|------- ------- ------- -------|------- ------- ------- -------|
B|--------7-------5--------------|--------7-------5--------------|
G|--------7-------6--------------|--------7-------6--------------|
D|--------7-----------7----------|--------7-----------7----------|
A|-------------------------------|-------------------------------|
E|-------------------------------|-------------------------------|




e|------- ------- ------- -------|------- ------- ------- -------|
B|-------------------------------|-------------------------------|
G|-------------------------------|-------------------------------|
D|----------------0---0----------|----------------0---0----------|
A|------------2-----------4------|------------2-----------4---2--|
E|0---0---4----------------------|0---0---4----------------------|
aaaaaaaaaaaaaaaaaaaaaaaaahhhhhhhh Well talk boys
(Yeah, yeah, boys) I about
e|------- ------- ------- -------|------- ------- ------- -------|
B|-------------------------------|-------------------------------|
G|-------------------------------|-------------------------------|
D|-------------------------------|-------------------------------|
A|-------------------------------|----------------------------1--|
E|0---0---0---0---0--------------|0---0---0---0---0---0---0------|

e|------- ------- ------- -------|------- ------- ------- -------|
B|--------2-------0--------------|-------------------------------|
G|--------2-------0--------------|-------------------------------|
D|--------2-----------2----------|------------0-------0----------|
A|-------------------------------|----------------------------2--|
E|-------------------------------|-------------------------------|




e|------- ------- ------- -------|------- ------- ------- -------|
B|-------------------------------|-------------------------------|
G|----------------2---2---1------|----------------0---0----------|
D|--------1---4---------------4--|------------2-----------4---2--|
A|2---2--------------------------|0---0---4----------------------|
E|-------------------------------|-------------------------------|
now What bundle of joy!
(Yeah, yeah, boys) a
e|------- ------- ------- -------|------- ------- ------- -------|
B|-------------------------------|-------------------------------|
G|-------------------------------|-------------------------------|
D|-------------------------------|-------------------------------|
A|2---2-------2-------2----------|0---0-------0-------0----------|
E|-------------------------------|----------------------------0--|

e|------- ------- ------- -------|------- ------- ---12-- -------|
B|-------------------------------|--------10---------10----------|
G|-------------------------------|----------------12-------------|
D|-------------------------------|-------------------------------|
A|6-------6-------6---6-------6--|-------------------------------|
E|7-------7-------7---7-------7--|-------------------------------|




e|------- ------- ------- -------|------- ------- ------- -------|
B|-------------------------------|-------------------------------|
G|-------------------------------|-------------------------------|
D|-------------------------------|7/9---9-9---9-------9-9-9---9--|
A|----------------2-------0------|7/9---9-9---9-------9-9-9---9--|
E|0---0---4---0---------------4--|5/7---7-7---7-------7-7-7---7--|
Woah, woah, uuuuuuuuh, Yeaaaaaaaaaaaaaahhh
e|------- 0------ ----0-- -------|------- ----0-- ------- -------|
B|-------------------------------|-------------------------------|
G|-------------------------------|-------------------------------|
D|-------------------------------|-------------------------------|
A|-------------------------------|-------------------------------|
E|-------------------------------|-------------------------------|


02:07

e|------- ------- ------- -------|------- ------- ------- -------|
B|-------------------------------|-------------------------------|
G|-------------------------------|-------------------------------|
D|----------------0---0----------|----------------0---0----------|
A|------------2-----------4---2--|------------2-----------4---2--|
E|0---0---4----------------------|0---0---4----------------------|
boys Don't you know mean
(Yeah, yeah, boys) I
e|------- ------- ------- -------|------- ------- ------- -------|
B|-------------------------------|-------------------------------|
G|-------------------------------|-------------------------------|
D|-------------------------------|-------------------------------|
A|-------------------------------|-------------------------------|
E|0---0--------------------------|0---0--------------------------|

e|------- 0------ ------- -------|------- 0------ ----0-- 2------|
B|-------------------------------|----------------3--------------|
G|-------------------------------|-------------------------------|
D|-------------------------------|-------------------------------|
A|-------------------------------|-------------------------------|
E|-------------------------------|-------------------------------|




e|------- ------- ------- -------|------- ------- ------- -------|
B|-------------------------------|-------------------------------|
G|-------------------------------|-------------------------------|
D|----------------0---0----------|----------------0---0----------|
A|------------2-----------4---2--|------------2-----------4---2--|
E|0---0---4----------------------|0---0---4----------------------|
boys Woooooooooooooooooooohhh boys
(Yeah, yeah, boys)
e|------- ------- ------- -------|------- ------- ------- -------|
B|-------------------------------|-------------------------------|
G|-------------------------------|-------------------------------|
D|-------------------------------|-------------------------------|
A|-------------------------------|-------------------------------|
E|0---0--------------------------|0---0---0-------0-------0------|

e|------- 0------ ----0-- -------|------- 0------ ----0-- -------|
B|-------------------------------|----------------3--------------|
G|-------------------------------|-------------------------------|
D|-------------------------------|-------------------------------|
A|-------------------------------|-------------------------------|
E|-------------------------------|-------------------------------|


02:14

e|------- ------- ------- -------|------- ------- ------- -------|
B|-------------------------------|-------------------------------|
G|----------------0---0----------|----------------0---0----------|
D|------------2-----------4---2--|------------2-----------4---2--|
A|0---0---4----------------------|0---0---4----------------------|
E|-------------------------------|-------------------------------|
Aaaaaaaaaaaaaaaaaaaaaaaahaa
(Yeah, yeah, boys)
e|------- ------- ------- -------|------- ------- ------- -------|
B|-------------------------------|-------------------------------|
G|-------------------------------|-------------------------------|
D|-------------------------------|-------------------------------|
A|----0--------------------------|0---0-------0---0---0----------|
E|-------------------------------|-------------------------------|

e|------- 0------ ------- -------|----7-- ------- 7------ ---7---|
B|-------------------------------|-------------------------------|
G|-------------------------------|-------------------------------|
D|-------------------------------|-------------------------------|
A|-------------------------------|-------------------------------|
E|-------------------------------|-------------------------------|




e|------- ------- ------- -------|------- ------- ------- -------|
B|-------------------------------|-------------------------------|
G|-------------------------------|-------------------------------|
D|----------------0---0----------|----------------0---0----------|
A|------------2-----------4------|------------2-----------4---2--|
E|0---0---4----------------------|0---0---4----------------------|
aahh Well talk
(Yeah, yeah, boys) I about
e|------- ------- ------- -------|------- ------- ------- -------|
B|-------------------------------|-------------------------------|
G|-------------------------------|-------------------------------|
D|-------------------------------|-------------------------------|
A|-------------------------------|-------------------------------|
E|0---0--------------------------|0---0--------------------------|

e|------- ------- ------- -------|------- ---7--- ----7-- -------|
B|-------------------------------|-------------------------------|
G|-------------------------------|-------------------------------|
D|-------------------------------|-------------------------------|
A|-------------------------------|-------------------------------|
E|-------------------------------|-------------------------------|
.......................... Fade Out ...........................




e|------- ------- ------- -------|------- ------- ------- -------|
B|-------------------------------|-------------------------------|
G|-------------------------------|-------------------------------|
D|-------------------------------|-------------------------------|
A|2---2--------------------------|-------------------------------|
E|-------------------------------|-------------------------------|
boys
now (Yeah yeah
e|------- ------- ------- -------|------- ------- ------- -------|
B|-------------------------------|-------------------------------|
G|-------------------------------|-------------------------------|
D|-------------------------------|-------------------------------|
A|2---2--------------------------|-------------------------------|
E|-------------------------------|-------------------------------|
............









b Small bend
B Bend
R Release
/ Slide up
\ Slide down
H Hammer-on
P Pull-off
~ Vibrato
+ Harmonic
x Mute note
. Play note like a dot in standard notation
^ Ties two notes together
(. Pause



Song info
Boys
The Beatles
2001
  • Pop
  • Rock
  • Pop Rock
Similar songs
All Summer Long - Kid Rock
Dirty Little Secret - All American Rejects
Lemon Tree - Fool's Garden

Hi! Hope you enjoy backing track experience.
If you want to help us in the development of the project, feel free to donate!