In My Life - The Beatles
00:00 / 00:00
Tabs and lyrics
Tunning: Standard (E A D G B e)
[Main Riff]

e|----5-----0-4-|
B|--2---2-3-----|
G|--2-----------|
D|--------------|
A|--------------|
E|--------------|


[Verse]

A F#m
There are places I'll remember
Bm Dm A
All my life though some have changed
A F#m
Some for ever not for better
Bm Dm A
Some have gone, and some remain.


[Chorus]

F#m Bm
All these places have their moments
G A
With lovers and friends, I still can recall
F#m Bm
Some are dead and some are living
D Dm A
In my life, I've loved them all


[Main Riff]

e|----5-----0-4-|
B|--2---2-3-----|
G|--2-----------|
D|--------------|
A|--------------|
E|--------------|


[Verse]

A F#m
But of all these friends and lovers
Bm Dm A
There is no one compared with you
A F#m
And these memories lose their meaning
Bm Dm A
When I think of love as something new


[Chorus]

F#m Bm
Thought I know I'll never lose affection
G A
For people and things that went before
F#m Bm
I know I'll often stop and think about them
D Dm A
In my life I'll love you more

[Solo]


[Chorus]

F#m Bm
Thought I know I'll never lose affection
G A
For people and things that went before
F#m Bm
I know I'll often stop and think about them
D Dm A
In my life I'll love you more


e|----5-----0-4-|
B|--2---2-3-----|
G|--2-----------|
D|--------------|
A|--------------|
E|--------------|

Dm (played as a bar chord at the 5th fret)
In my life I'll love you more


[Last Riff]
E7 A
E|----5-----0-4----4--2--4--5-|
B|--2---2-3--------3--------5-|
G|--2--------------4--------6-|
D|--------------------------7-|
A|----------------------------|
E|----------------------------|



CHORD FORMATIONS:
A x 0 2 2 2 0
F#m 2 4 4 2 2 2 (Bar across 2nd fret)
Bm x x 4 4 3 2
Dm x x 0 2 3 1
G 3 2 0 0 3 3

=================================


e| -|-------5-------------------4---------5-------------------4-|
B| -|--2---------2----3----5---------2---------2----3----5------|
G| -|-----------------------------------------------------------|
D| -|-----------------------------------------------------------|
A| -|-----------------------------------------------------------|
E| -|-----------------------------------------------------------|

Then the ending:

e| -|--------5------------------4--------4----2----4---5--------|
B| -|---2--------2----3----5------------------------------------|
G| -|-----------------------------------------------------------|
D| -|-----------------------------------------------------------|
A| -|-----------------------------------------------------------|
E| -|-----------------------------------------------------------|

============================

In My Life

By The Beatles

From The Rubber Sole Album

Tab By Roi Ben Menachem, Israel

Start

e|---5-------4-0-0-0------\-|
B|-2---2-3-5---0-0-0--------|
G|-------------1-1-1--------|
D|-------------2-2-2--------|
A|-0---0-------2-2-2--------|
E|-----------0-0-0-0--------|

End

e|---5-------4-4-2-4-5---\-|
B|-2---2-3-5---------------|
G|-------------------------|
D|-------------------------|
A|-0---0-------------0-----|
E|-----------0-0-0-0-------|

=====================================

(A) (E)
e|-----5-------------|--------|
B|----------------9--|-----/--|
G|--6-----6h7--9-----|--.-/---|
D|-------------------|---/-.--|
A|-------------------|--/-----|
E|-------------------|--------|


[Verse]

(A) (E7) (F#m) (A7) (D) (Dm) (A)
There are places I'll remember, all my life, though some have changed
(E7) (F#m) (A7) (D)(Dm) (A)
Some forever, not for better, some have gone and some remain.
(F#m) (Bm) (G) (A)
All these places had their moments, with lovers and friends, I still can recal.
(F#m) (B) (D) (A)
Some are dead and some are living. In my life I've loved them all.


[Opening Riff]

e|---5-------4-0-0-0------\-|
B|-2---2-3-5---0-0-0--------|
G|-------------1-1-1--------|
D|-------------2-2-2--------|
A|-0---0-------2-2-2--------|
E|-----------0-0-0-0--------|


[Electric Piano Solo]

e|------------9-----12p10--12----------------------9p7--9---10--12--15--|
B|-----10h12----10-------------12-----12---7h9/10-----------------------|
G|---------------------------------9------------------------------------|
D|----------------------------------------------------------------------|
A|--0-------------------------------------------------------------------|
E|----------------------------------------------------------------------|

e|-14-12-14----14----14----13p12--13-------12-10-12-9-12----12----12p10--12-9-----|
B|----------15----14----12-----------15-12---------------12----10-------------12--|
G|--------------------------------------------------------------------------------|
D|--------------------------------------------------------------------------------|
A|--------------------------------------------------------------------------------|
E|--------------------------------------------------------------------------------|


(FIRST LINE AGAIN)


e|--12--9h10h12--9-------------------------------|
B|-----------------10---9---10p9p7---------------|
G|--------------------9-------------9p7p6--------|
D|------------------------------------------9p7--|
A|-----------------------------------------------|
E|-----------------------------------------------|

The rest of the song is the same except
for this little bit at the end:


(E7) (A)
e|------------5--|
B|--9--7-9----5--|
G|--7---------6--|
D|--9---------7--|
A|--7------------|
E|---------------|


CHORDS USED:

A- 566755
E7- 020100
F#m- 244222
A7- 575655
D- X57775
Dm- X57765
Bm- X24432
G- 355433
B- X24442



************************************

| h Hammer-on
| p Pull-off
| / Slide up
| \ Slide down

************************************
Tunning: Standard (E A D G B e)
----------------------------------------------------------------------------
IN MY Life - Beatles
----------------------------------------------------------------------------
Tabbed by: JboyShyne@Yahoo.com

Here's a fingerstyle arrangement of In My Life by the Beatles that I recently arranged
on my classical guitar. Although the Beatles did the tune in A, I found it easier to
fingerstyle it in the key of G, especially during the intro with the open G and Dsus
chords. If one wants to play it in A, a capo at the 2nd fret could be employed and then
everything would be moved up 2 frets.

Tuning: Standard
Timing 4/4


[Intro]

G D Dsus G D Dsus
e|----3---------2-|--2-----3p2-------|-----3---------2-|--2---3p2----------|
B|0-------0-1-3---|------3-----3-----|-0-------0-1-3---|----3-----3--------|
G|----------------|--------------2---|-----------------|------------2------|
D|--------------0-|----------------0-|---------------0-|--------------0-0-2|
A|----2-----------|------------------|-----2-----------|-------------------|
E|3-------3-------|------------------|-3-------3-------|-------------------|
There are
G Em C Cm G
e|-----------------|------------------|-----------------|-----------------|
B|-------------0---|-3-0------------0-|-----------------|---0---0---------|
G|-2---0---2-------|--------------2---|-2--h4p2p0-------|-----------------|
D|-----------------|------------------|---------------1-|-0-----------0-2-|
A|-0-------0-------|-2------------0---|-0---------------|-----------------|
E|-----3-------3---|---3------------3-|---------3-------|---3---3---------|
places I'll re member . . .
G Em C Cm G
e|-----------------|------------------|-----------------|-----------------|
B|-------------0---|-3-0------------0-|-----------------|---0---0---------|
G|-2---0---2-------|--------------2---|-2--h4p2p0-------|-------------0-2-|
D|-----------------|------------------|---------------1-|-0---------------|
A|-0-------0-------|-2------------0---|-0---------------|---------------0-|
E|-----3-------3---|---3------------3-|---------3-------|---3---3-----3---|

Em C F G
e|-----------------|------------------|-----------------|-----------------|
B|-0---------------|-0--------------0-|-1-0-------------|---0-0-0---------|
G|-----2---0-------|---2--------------|-----2-0-0-------|-------------0-2-|
D|-------------2---|---------2--------|---------------1-|-0---------------|
A|-----0-----------|---0--------------|-----0-----------|---------------0-|
E|-3-------3---0---|-3-------0------3-|-1-3---3-3-------|---3-3-3-----3---|

Em A7 Cm G
e|-----------------|------------------|-----------------|-----------------|
B|-0---------------|-0----------------|-----------------|-----0-0---------|
G|---2-2-0-0-----0-|---2--------------|-3-2-0-2-0-------|-----------------|
D|-----------2-2---|----------------2-|---------------1-|-0---------------|
A|---0-0-----------|---0--------------|-1-0---0---------|-----------------|
E|-3-----3-3-0-0-3-|-3--------------0-|-----3---3-------|-----3-3---------|


[Intro]

G D Dsus G D Dsus
e|----3---------2-|--2-----3p2-------|-----3---------2-|--2---3p2----------|
B|0-------0-1-3---|------3-----3-----|-0-------0-1-3---|----3-----3--------|
G|----------------|--------------2---|-----------------|------------2------|
D|--------------0-|----------------0-|---------------0-|--------------0-0-2|
A|----2-----------|------------------|-----2-----------|-------------------|
E|3-------3-------|------------------|-3-------3-------|-------------------|
But of
G Em C Cm G
e|-----------------|------------------|-----------------|-----------------|
B|-------------0---|-3-0------------0-|-----------------|---0---0---------|
G|-2---0---2-------|--------------2---|-2--h4p2p0-------|-----------------|
D|-----------------|------------------|---------------1-|-0-----------0-2-|
A|-0-------0-------|-2------------0---|-0---------------|-----------------|
E|-----3-------3---|---3------------3-|---------3-------|---3---3---------|
all these . . .. .
G Em C Cm G
e|-----------------|------------------|-----------------|-----------------|
B|-------------0---|-3-0------------0-|-----------------|---0---0---------|
G|-2---0---2-------|--------------2---|-2--h4p2p0-------|-------------0-2-|
D|-----------------|------------------|---------------1-|-0---------------|
A|-0-------0-------|-2------------0---|-0---------------|---------------0-|
E|-----3-------3---|---3------------3-|---------3-------|---3---3-----3---|

Em C F G
e|-----------------|------------------|-----------------|-----------------|
B|-0---------------|-0--------------0-|-1-0-------------|---0-0-0---------|
G|-----2---0-------|---2--------------|-----2-0-0-------|-------------0-2-|
D|-------------2---|---------2--------|---------------1-|-0---------------|
A|-----0-----------|---0--------------|-----0-----------|---------------0-|
E|-3-------3---0---|-3-------0------3-|-1-3---3-3-------|---3-3-3-----3---|

Em A7 Cm G
e|-----------------|------------------|-----------------|-----------------|
B|-0---------------|-0----------------|-----------------|-----0-0---------|
G|---2-2-0-0-----0-|---2--------------|-3-2-0-2-0-------|-----------------|
D|-----------2-2---|----------------2-|---------------1-|-0---------------|
A|---0-0-----------|---0--------------|-1-0---0---------|-----------------|
E|-3-----3-3-0-0-3-|-3--------------0-|-----3---3-------|-----3-3---------|


[Solo]

G D Em G7
e|-----------10h12p10----------|------------------------13-|
B|---10-12------------10----10-|---------12h13p12-13-15----|
G|-12-----12-------------11----|-9/11/12-------------------|
D|-----------------------------|---------------------------|
A|-----------------------------|---------------------------|
E|-----------------------------|---------------------------|

C Cm6 G
e|-12--12--12--12--12\10/12----|-10--10--10--10—-10\8/10------|
B|---15--13--12------------13--|---13--12--10-----------12-10-|
G|---------------14----------14|---------------12-------------|
D|-----------------------------|------------------------------|
A|-----------------------------|------------------------------|
E|-----------------------------|------------------------------|

G D Em G7
e|-----------10h12p10----------|------------------------13-|
B|---10-12------------10----10-|---------12h13p12-13-15----|
G|-12-----12-------------11----|-9/11/12-------------------|
D|-----------------------------|---------------------------|
A|-----------------------------|---------------------------|
E|-----------------------------|---------------------------|

C Cm6 G
e|12--12--12--12--12\10/12----|-10--10-------------------------------------|
B|--15--13--12------------13--|---12--12-----------------------------------|
G|--------------14----------14|---------12—-11-12-11-9-------------------0-|
D|----------------------------|-----------12----------12-10-9---------2----|
A|----------------------------|-------------------------------12-10--------|
E|----------------------------|--------------------------------------------|
Tho' I
Em C F G
e|-----------------|------------------|-----------------|-----------------|
B|-0---------------|-0--------------0-|-1-0-------------|---0-0-0---------|
G|-----2---0-------|---2--------------|-----2-0-0-------|-------------0-2-|
D|-------------2---|---------2--------|---------------1-|-0---------------|
A|-----0-----------|---0--------------|-----0-----------|---------------0-|
E|-3-------3---0---|-3-------0------3-|-1-3---3-3-------|---3-3-3-----3---|
Know I'll never . . .
Em A7 Cm G
e|-----------------|------------------|-----------------|-----------------|
B|-0---------------|-0----------------|-----------------|-----0-0---------|
G|---2-2-0-0-----0-|---2--------------|-3-2-0-2-0-------|-----------------|
D|-----------2-2---|----------------2-|---------------1-|-0---------------|
A|---0-0-----------|---0--------------|-1-0---0---------|-----------------|
E|-3-----3-3-0-0-3-|-3--------------0-|-----3---3-------|-----3-3---------|


[Intro]

G D Dsus G D Dsus
e|----3---------2-|--2-----3p2-------|-----3---------2-|--2---3p2----------|
B|0-------0-1-3---|------3-----3-----|-0-------0-1-3---|----3-----3--------|
G|----------------|--------------2---|-----------------|------------2------|
D|--------------0-|----------------0-|---------------0-|--------------0-0--|
A|----2-----------|------------------|-----2-----------|-------------------|
E|3-------3-------|------------------|-3-------3-------|-------------------|
slow
Cm G G D D Em D G
|-------------------|-----------|-----3---------|-2---2--0---2-|-3---------|
|-------------------|-----0---0-|-0-------0-1-3-|-3---3------3-|-0---------|
|3--2--0--2--0------|-----------|---------------|-2---2--0---2-|-0---------|
|-----------------1-|-0---------|---------------|-0---0------0-|-0---------|
|1--0-----0---------|-----------|-----2---------|--------------|-2---------|
|------3-----3------|-----3---3-|-3-------3-----|--------------|-3---------|



************************************

| / slide up
| \ slide down
| h hammer-on
| p pull-off
| ~ vibrato
| + harmonic
| x Mute note

************************************
Tunning: Standard (E A D G B e)
The Beatles
In My Life : Rubber Soul


[Intro] Main Riff:
e|---5--------4---|----------------|---5--------4---|----------------|
B|2-----2-3-5-----|----------------|2-----2-3-5-----|----------------|
G|----------------|1--1-1-1--------|----------------|1--1-1-1--------|
D|----------------|2--2-2-2--------|----------------|2--2-2-2--------|
A|0-----0---------|2--2-2-2--------|0-----0---------|2--2-2-2--------|
E|------------0---|0--0-0-0--------|------------0---|0--0-0-0--------|


[Verse:] (develop a strumming pattern as you play)
A F#m Bm Dm A
e|--------5-------|-------2--------|----2---5-------|5---------------|
B|--------5-------|-------2--------|----3---6-------|5---------------|
G|--------6-------|-------2--------|----4---7-------|6---------------|
D|--------7-------|-------4--------|----4---7-------|7---------------|
A|--------7-------|-------4--------|----2---5-------|7---------------|
E|--------5-------|-------2--------|----------------|5---------------|
There are places I'll remember, all my life though some have changed

A F#m Bm Dm A
e|--------5-------|-------2--------|----2---5-------|5---------------|
B|--------5-------|-------2--------|----3---6-------|5---------------|
G|--------6-------|-------2--------|----4---7-------|6---------------|
D|--------7-------|-------4--------|----4---7-------|7---------------|
A|--------7-------|-------4--------|----2---5-------|7---------------|
E|--------5-------|-------2--------|----------------|5---------------|
Some forever not for better, some have gone and some remain

F#m Bm
e|----------2-----|------------2---|
B|----------2-----|------------3---|
G|----------2-----|------------4---|
D|----------4-----|------------4---|
A|----------4-----|------------2---|
E|----------2-----|----------------|
All these places have their moments

G A
e|------3---------|----------5-----|
B|------3---------|----------5-----|
G|------4---------|----------6-----|
D|------5---------|----------7-----|
A|------5---------|----------7-----|
E|------3---------|----------5-----|
With lovers and friends, i still cant recall

F#m Bm D Dm A
e|----------2-----|-----------2----|--5-----5-------|5---------------|
B|----------2-----|-----------3----|--7-----6-------|5---------------|
G|----------2-----|-----------4----|--7-----7-------|6---------------|
D|----------4-----|-----------4----|--7-----7-------|7---------------|
A|----------4-----|-----------2----|--5-----5-------|7---------------|
E|----------2-----|----------------|----------------|5---------------|
Some are dead and some are living, In my life I've loved them all

Main Riff:
e|---5--------4---|----------------|
B|2-----2-3-5-----|----------------|
G|----------------|1--1-1-1--------|
D|----------------|2--2-2-2--------|
A|0-----0---------|2--2-2-2--------|
E|------------0---|0--0-0-0--------|


[Verse:]
A F#m Bm Dm A
e|--------5-------|--------------2-|-----------2---5|----5-----------|
B|--------5-------|--------------2-|-----------3---6|----5-----------|
G|--------6-------|--------------2-|-----------4---7|----6-----------|
D|--------7-------|--------------4-|-----------4---7|----7-----------|
A|--------7-------|--------------4-|-----------2---5|----7-----------|
E|--------5-------|--------------2-|----------------|----5-----------|
But of all these friends and lovers, there is no one compares with you

A F#m Bm Dm A
e|--------5-------|--------------2-|-----------2----|--5--------5----|
B|--------5-------|--------------2-|-----------3----|--6--------5----|
G|--------6-------|--------------2-|-----------4----|--7--------6----|
D|--------7-------|--------------4-|-----------4----|--7--------7----|
A|--------7-------|--------------4-|-----------2----|--5--------7----|
E|--------5-------|--------------2-|----------------|-----------5----|
And these memories lose their meaning,when i think of love as something new

F#m Bm
e|----------2-----|------------2---|
B|----------2-----|------------3---|
G|----------2-----|------------4---|
D|----------4-----|------------4---|
A|----------4-----|------------2---|
E|----------2-----|----------------|
Though i know I'll never lose affection

G A
e|----3-----------|---------5------|
B|----3-----------|---------5------|
G|----4-----------|---------6------|
D|----5-----------|---------7------|
A|----5-----------|---------7------|
E|----3-----------|---------5------|
For people and things that went before

F#m Bm
e|----2-----------|--------------2-|
B|----2-----------|--------------3-|
G|----2-----------|--------------4-|
D|----4-----------|--------------4-|
A|----4-----------|--------------2-|
E|----2-----------|----------------|
I know I'll often stop and think about them

D Dm A
e|--5----5-----5--|----------------|
B|--7----6-----5--|----------------|
G|--7----7-----6--|----------------|
D|--7----7-----7--|----------------|
A|--5----5-----7--|----------------|
E|-------------5--|----------------|
In my life I love you more

Chorus: (play twice)
i prefer to strum the chords here, other versions of this song have the tab
for the piano solo, but it sounds terrible played with a guitar :-(
listen to the solo while you strum to get the rhythm it sounds alot tidier
than a picked solo

A F#m Bm Dm A
e|-5--------------|--2-------------|--2----------5--|-5--------------|
B|-5--------------|--2-------------|--3----------6--|-5--------------|
G|-6--------------|--2-------------|--4----------7--|-6--------------| X2
D|-7--------------|--4-------------|--4----------7--|-7--------------|
A|-7--------------|--4-------------|--2----------5--|-7--------------|
E|-5--------------|--2-------------|----------------|-5--------------|


[Last Verse:]
F#m Bm
e|----------2-----|------------2---|
B|----------2-----|------------3---|
G|----------2-----|------------4---|
D|----------4-----|------------4---|
A|----------4-----|------------2---|
E|----------2-----|----------------|
Though I know I'll never lose affection

G A
e|------3---------|----------5-----|
B|------3---------|----------5-----|
G|------4---------|----------6-----|
D|------5---------|----------7-----|
A|------5---------|----------7-----|
E|------3---------|----------5-----|
For people and things that went before

F#m Bm
e|----2-----------|--------------2-|
B|----2-----------|--------------3-|
G|----2-----------|--------------4-|
D|----4-----------|--------------4-|
A|----4-----------|--------------2-|
E|----2-----------|----------------|
I know I'll often stop and think about them

D Dm A
e|--5----5-----5--|----------------|
B|--7----6-----5--|----------------|
G|--7----7-----6--|----------------|
D|--7----7-----7--|----------------|
A|--5----5-----7--|----------------|
E|-------------5--|----------------|
In my life I love you more

Main Riff:
e|---5--------4---|----------------|
B|2-----2-3-5-----|----------------|
G|----------------|----------------|
D|----------------|----------------|
A|0-----0---------|----------------|
E|------------0---|----------------|

Dm (strum once)
e|---5------------|----------------|
B|---6------------|----------------|
G|---7------------|----------------|
D|---7------------|----------------|
A|---5------------|----------------|
E|----------------|----------------|
In my life I love you more

End Riff:
e|---5--------4---|-------5--------|
B|2-----2-3-5-----|9-7-9--5--------|
G|----------------|7------6--------|
D|----------------|9------7--------|
A|0-----0---------|7---------------|
E|------------0---|----------------|
Tunning: Standard (E A D G B e)
--------------------------------------------------------------------

THE BEATLES --IN MY LIFE (Lennon/McCartney) From RUBBER SOUL album.
Released on 3rd December 1965.

--------------------------------------------------------------------

Tabbed by:PJVillanueva

I have included the great piano solo by George Martin. I think it is
not too difficult to master and can be played as two different guitar
parts (treble and bass). It may be a little help explaining the last
measure of the solo, in which the third beat contains an 8th note
along with a sextet of 32nd notes that run into the last note on the
fourth beat of the measure.
It's really fast and it was recorded at half speed and speeded up
later giving it more precission and that fine harpsichord tone, but
I think that it can be played using a chain of five pull offs with
just two hammer ons.




There are places I'll remember
All my life though some have changed
Some forever not for better
Some have gone and some remain
All these places have their moments
With lovers and friends I still can recall
Some are dead and some are living
In my life I've loved them all

But of all these friends and lovers
There is no one compares with you
And these memories lose their meaning
When I think of love as something new
Though I know I'll never lose affection
For people and things that went before
I know I'll often stop and think about them
In my life I love you more

Though I know I'll never lose affection
For people and things that went before
I know I'll often stop and think about them
In my life I love you more
In my life I love you more


4/4

A5 E5
e|-----------------------------------|-----------------------------------|
B|-----------------------------------|-----------------------------------|
G|2--------2--------2----------------|-----------------------------------|
D|2--------2--------2------------2---|---------2--------2--------2---2---|
A|0--------0--------0------------2---|---------2--------2--------2---2---|
E|-------------------------------0---|---------0--------0--------0---0---|

e|---------5-----------------0---4---|-----------------------------------|
B|2-----------------2-H-3------------|-----------------------------------|
G|-----------------------------------|-----------------------------------|
D|-----------------------------------|-----------------------------------|
A|-----------------------------------|-----------------------------------|
E|-----------------------------------|-----------------------------------|


A5 E5
e|-----------------------------------|-----------------------------------|
B|-----------------------------------|-----------------------------------|
G|2--------2--------2----------------|-----------------------------------|
D|2--------2--------2------------2---|---------2--------2--------2-------|
A|0--------0--------0------------2---|---------2--------2--------2-------|
E|-------------------------------0---|---------0--------0--------0-------|
There are
e|---------5-----------------0---4---|-----------------------------------|
B|2-----------------2-H-3------------|-----------------------------------|
G|-----------------------------------|-----------------------------------|
D|-----------------------------------|-----------------------------------|
A|-----------------------------------|-----------------------------------|
E|-----------------------------------|-----------------------------------|


A E F#m A7
e|-----------------------------------|2---------------------0----0-------|
B|-------------2---------------------|2---------------------2----2-------|
G|---------2-------------------------|2---------------------0----0-------|
D|-------2----------2--------2-------|4---------------------2----2-------|
A|0---0-------------2--------2-------|4---------------------0----0-------|
E|------------------0--------0-------|2----------------------------------|
places I'll remember all my


D Dm A
e|---------2-----------------1-------|-----------------------------------|
B|-------3-----3-----------3---------|-------------2---------------------|
G|----2----------------2-------------|---------2------------2--------2---|
D|0-----------------0----------------|-------2---------------------------|
A|-----------------------------------|0---0------------------------------|
E|-----------------------------------|-----------------------------------|
life though some have changed Some fo..


E F#m A7
e|-----------------------------------|-----------------------------------|
B|---------2-----------------0-------|2----------------------------------|
G|-------2-----2-----------1---------|2----------------------------------|
D|----2-----------------2------------|4----------------------------------|
A|0----------------------------------|4------------0-------------0-------|
E|------------------0----------------|2-----------------3----------------|
rever not for better Some have


D D(m) A
e|-----------------------------------|-----------------------------------|
B|---------3-----------------3-------|---------2------------2------------|
G|-------2-----2-----------2-----2---|---------2------------2------------|
D|0---0-------------0---0------------|---------2------------2------------|
A|-----------------------------------|0----------------------------------|
E|-----------------------------------|-----------------------------------|
gone and some remain All these


F#m D
e|2----------------------------------|2------------2----2--------2-------|
B|2----------------------------------|3------------3----3--------3-------|
G|2----------------------------------|2------------2----2--------2-------|
D|4----------------------------------|0------------0----0--------0-------|
A|4----------------------------------|0------------0----0--------0-------|
E|2----------------------------------|-----------------------------------|
places have their moments


G A
e|3--------3---3----3---3----3-------|5---5--------5-------------5-------|
B|3--------3---3----3---3----3-------|5---5--------5-------------5-------|
G|4--------4---4----4---4----4-------|6---6--------6-------------6-------|
D|5--------5---5----5---5----5-------|7---7--------7-------------7-------|
A|5--------5---5----5---5----5-------|7---7--------7-------------7-------|
E|3--------3---3----3---3----3-------|5---5--------5-------------5-------|
lovers and friends I still can recall Some are


F#m B5
e|-----------------------------------|-----------------------------------|
B|-----------------------------------|-----------------------------------|
G|2----------------------------------|4------------4----4--------4-------|
D|4----------------------------------|4------------4----4--------4-------|
A|4----------------------------------|2------------2----2--------2-------|
E|2----------------------------------|-----------------------------------|
dead and some are living In


D D(m) A
e|-----------------------------------|-------------0---------------------|
B|---------3-----------------3-------|---------2-------------------------|
G|-------2-----2-----------2-----2---|-------2---------------------------|
D|0---0-------------0---0------------|----2------------------------------|
A|-----------------------------------|0----------------------------------|
E|-----------------------------------|-----------------------------------|
my life I've loved them all


A5 E5
e|-----------------------------------|-----------------------------------|
B|-----------------------------------|-----------------------------------|
G|2--------2--------2----------------|-----------------------------------|
D|2--------2--------2------------2---|---------2--------2--------2-------|
A|0--------0--------0------------2---|---------2--------2--------2-------|
E|-------------------------------0---|---------0--------0--------0-------|
But of
e|---------5-----------------0---4---|-----------------------------------|
B|2-----------------2-H-3------------|-----------------------------------|
G|-----------------------------------|-----------------------------------|
D|-----------------------------------|-----------------------------------|
A|-----------------------------------|-----------------------------------|
E|-----------------------------------|-----------------------------------|


A E F#m A7
e|-----------------------------------|-----------------------------------|
B|---2-------------------------------|2-----------2--------------2-------|
G|--2---------------1----------------|2-----------0--------------0-------|
D|-2----------------2----------------|4-----------2--------------2-------|
A|0-----------------2----------------|4-----------0--------------0-------|
E|------------------0----------------|2----------------------------------|
all these friends and lovers there is


D D(m) A
e|-----------------------------------|-----------------------------------|
B|---------3---3-------------3-------|----2--------2----2---2--------2---|
G|-------2-----------------2-----2---|----2--------2----2---2--------2---|
D|0---0-------------0---0------------|----2--------2----2---2--------2---|
A|-----------------------------------|0------------0----0---0--------0---|
E|-----------------------------------|-----------------------------------|
no one compared with you And these


E F#m A7
e|-----------------------------------|-----------------------------------|
B|---------2-------------------------|2--------2---2----2--------2-------|
G|-------2-----2----1----------------|2--------2---0----0--------0-------|
D|----2-------------2----------------|4--------4---2----2--------2-------|
A|0-----------------2----------------|4--------4---0----0--------0-------|
E|------------------0----------------|2--------2-------------------------|
memories lose their meaning when I


D D(m) A
e|-----------------------------------|-----------------------------------|
B|---------3-----------------3-------|2------------2--------2------------|
G|-------2-----2-----------2-----2---|2------------2--------2------------|
D|0---0-------------0---0------------|2------------2--------2------------|
A|-----------------------------------|0------------0--------0------------|
E|-----------------------------------|-----------------------------------|
think of love as something new Tough I


F#m D
e|-----------------------------------|2------------2----2----------------|
B|2--------2---------------------2---|3------------3----3----------------|
G|2--------2---------------------2---|2------------2----2----------------|
D|4--------4---------------------4---|0------------0----0----------------|
A|4--------4---------------------4---|0------------0----0----------------|
E|2--------2---------------------2---|-----------------------------------|
know I'll never lose affection for


G A
e|3--------3---3----3--------3---3---|5------------5--------5----5-------|
B|3--------3---3----3--------3---3---|5------------5--------5----5-------|
G|4--------4---4----4--------4---4---|6------------6--------6----6-------|
D|5--------5---5----5--------5---5---|7------------7--------7----7-------|
A|5--------5---5----5--------5---5---|7------------7--------7----7-------|
E|3--------3---3----3--------3---3---|5------------5--------5----5-------|
people and things that went before I


F#m B5
e|-----------------------------------|-----------------------------------|
B|2---------------------2------------|-----------------------------------|
G|2---------------------2------------|4------------4-------------4-------|
D|4---------------------4------------|4------------4--------4------------|
A|4---------------------4------------|2------------2----2----------------|
E|2---------------------2------------|-----------------------------------|
know I'll often stop and think about them In


D D(m) A
e|-----------------------------------|-----------------------------------|
B|---------3-----------------3-------|2---2----2--------2---2-----2------|
G|-------2-----2-----------2-----2---|2---2----2--------2---2-----2------|
D|0---0-------------0---0------------|2---2----2--------2---2-----2------|
A|-----------------------------------|0---0----0--------0---0-----0------|
E|-----------------------------------|-----------------------------------|
my life


[Piano solo]

E F#m A7
e|-----------------------------------|-----------------------------------|
B|---------2-----------------0-------|2------------2-------------2-------|
G|-------2-----2-----------1---------|2------------0-------------0-------|
D|-----2-----------------2-----------|4------------2-------------2-------|
A|0----------------------------------|4------------0-------------0-------|
E|------------------0----------------|2----------------------------------|

e|---------9--------121012-----------|---------------------------12--15--|
B|----1012-----10---------12-----12--|------------141214----15-----------|
G|---------------------------9-------|----1113-14------------------------|
D|-----------------------------------|-----------------------------------|
A|-----------------------------------|-----------------------------------|
E|-----------------------------------|-----------------------------------|

e|-----------------------------------|-----------------------------------|
B|-----------------------------------|-----------------------------------|
G|-------------4---------------------|----------------------6-4----------|
D|7--------------7--6--------7---6---|4------------5-------------7-5-3---|
A|----------------------7------------|---------------------------------7-|
E|-----------------------------------|-----------------------------------|


D Dm A
e|-------------2-----------------1---|-------------0---------------------|
B|---------3-----------------3-------|2--------2------------2------------|
G|-------2-----------------2---------|2------2-----------------------2---|
D|0---0-------------0---0------------|2----2-----------------------------|
A|-----------------------------------|0---0------------------------------|
E|-----------------------------------|-----------------------------------|

e|--141214 --14--14 ---131213--------|--121012 --12--12 ---121012--------|
B|---------15--14---12-------15--12--|---------14--12---10-------14--12--|
G|-----------------------------------|-----------------------------------|
D|-----------------------------------|-----------------------------------|
A|-----------------------------------|-----------------------------------|
E|-----------------------------------|-----------------------------------|

e|-----------------------------------|-----------------------------------|
B|-----------------------------------|-----------------------------------|
G|-----------------------------------|--------------------6---6----6---6-|
D|---------7----------7-6-7----7---7-|---------7------------9----7---6---|
A|5-----------------5--------9---7---|4-----------------7----------------|
E|-----------------------------------|-----------------------------------|

E F#m A7
e|-----------------------------------|-----------------------------------|
B|---------2-----------------0-------|2--------2-----------------2-------|
G|-------2-----2-----------1-----1---|2-------2------------------0-------|
D|-----2-----------------2-----------|4------4-------------------2-------|
A|0----------------------------------|4-----4--------------------0-------|
E|------------------0----------------|2----2-----------------------------|

e|---------9--------121012-----------|---------------------------12--15--|
B|----1012-----10---------12-----12--|------------141214----15-----------|
G|---------------------------9-------|----1113-14------------------------|
D|-----------------------------------|-----------------------------------|
A|-----------------------------------|-----------------------------------|
E|-----------------------------------|-----------------------------------|

e|-----------------------------------|-----------------------------------|
B|-----------------------------------|-----------------------------------|
G|-------------4---------------------|----------------------6-4----------|
D|7--------------7--6--------7---6---|4------------5-------------7-5-3---|
A|----------------------7------------|---------------------------------7-|
E|-----------------------------------|-----------------------------------|

D D(m) A
e|-----------------------------------|-----------------------------------|
B|---------3-----------------3-------|2--------2---2-------------2-------|
G|-------2-----2-----------2-----2---|2-------2----2-------------0-------|
D|0---0-------------0---0------------|2------2-----2-------------2-------|
A|-----------------------------------|0-----0------0-------------0-------|
E|-----------------------------------|-----------------------------------|

e|--141214 --14--14 ---131213--------|12-91012 9---0-4--5-420------------|
B|---------15--14---12-------15--12--|-----------10----------320---------|
G|-----------------------------------|---------------------------2-------|
D|-----------------------------------|-----------------------------------|
A|-----------------------------------|-----------------------------------|
E|-----------------------------------|-----------------------------------|
Though I
e|-----------------------------------|-----------------------------------|
B|-----------------------------------|-----------------------------------|
G|-----------------------------------|-----------------------------------|
D|---------7----------7-6-7----7---7-|---------7--------7--64------------|
A|5-----------------5--------9---7---|4------------7---------754---------|
E|-----------------------------------|--------------------------75-------|

F#m D
e|2----------------------------------|----2------------------------------|
B|2----------------------------------|---3-------------------------------|
G|2----------------------------------|--2--------------------------------|
D|4----------------------------------|-0---------------------------------|
A|4----------------------------------|0----------------------------------|
E|2----------------------------------|-----------------------------------|
know I'll never lose affection for


G A
e|3--------3---3----3--------3---3---|5--------5--------5----------------|
B|3--------3---3----3--------3---3---|5--------5--------5----------------|
G|4--------4---4----4--------4---4---|6--------6--------6----------------|
D|5--------5---5----5--------5---5---|7--------7--------7----------------|
A|5--------5---5----5--------5---5---|7--------7--------7----------------|
E|3--------3---3----3--------3---3---|5--------5--------5----------------|
people and things that went before I


F#m F#5 B5
e|-----------------------------------|-----------------------------------|
B|2----------------------------------|-----------------------------------|
G|2----------------------------------|----4--------4---------------------|
D|4---4--------4--------4--------4---|----4--------4----4--------4-------|
A|4---4--------4--------4--------4---|----2--------2--------2------------|
E|2---2--------2--------2--------2---|-----------------------------------|
know I'll often stop and think about them In


D Dm A
e|---------2-----------------1-------|-----------------------------------|
B|-------3-----------------3---------|2--------2---2-------------2-------|
G|------2------2----------2----------|2------2-----2-------------2-------|
D|0---0-------------0---0------------|2-----2------2-------------2-------|
A|-----------------------------------|0---0--------0-------------0-------|
E|-----------------------------------|-----------------------------------|
my life I love you more


A5 E5
e|-----------------------------------|-----------------------------------|
B|-----------------------------------|-----------------------------------|
G|2--------2--------2----------------|-----------------------------------|
D|2--------2--------2------------2---|---------2--------2--------2-------|
A|0--------0--------0------------2---|---------2--------2--------2-------|
E|-------------------------------0---|---------0--------0--------0-------|
In
e|---------5-----------------0---4---|------------------4---2----4-------|
B|2-----------------2-H-3------------|-----------------3-----------------|
G|-----------------------------------|----------------4------------------|
D|-----------------------------------|-----------------------------------|
A|-----------------------------------|-----------------------------------|
E|-----------------------------------|-----------------------------------|

(.
Dm
e|1----------------------------------|-----------------|
B|3----------------------------------|-----------------|
G|2----------------------------------|-----------------|
D|0----------------------------------|-----------------|
A|0----------------------------------|-----------------|
E|-----------------------------------|-----------------|
my life I love you


A5 E5
e|-----------------------------------|-----------------------------------|
B|-----------------------------------|-----------------------------------|
G|2--------2--------2----------------|-----------------------------------|
D|2--------2--------2------------2---|---------2--------2---2--------2---|
A|0--------0--------0------------2---|---------2--------2---2--------2---|
E|-------------------------------0---|---------0--------0---0--------0---|
more E7 E7sus2 E7
e|---------5-----------------0---4---|------------------4---2----4-------|
B|2-----------------2-H-3------------|-----------------3-----------------|
G|-----------------------------------|----------------4------------------2
D|-----------------------------------|-----------------------------------|
A|-----------------------------------|-----------------------------------|
E|-----------------------------------|-----------------------------------|

(.
A
e|0----------------------------------|-----------------------------------|
B|2----------------------------------|-----------------------------------|
G|2----------------------------------|-----------------------------------|
D|2----------------------------------|-----------------------------------|
A|0----------------------------------|-----------------------------------|
E|-----------------------------------|-----------------------------------|

e|5----------------------------------|-----------------------------------|
B|2-----------------------------------|----------------------------------|
G|-----------------------------------|-----------------------------------|
D|-----------------------------------|-----------------------------------|
A|-----------------------------------|-----------------------------------|
E|-----------------------------------|-----------------------------------|



************************************

B Bend
R Release
/ Slide up
\ Slide down
H Hammer-on
P Pull-off
~ Vibrato
+ Harmonic
x Mute note
. Play note like a dot in standard notation
^ Ties two notes together
(. Pause

************************************
Tunning: Standard (E A D G B e)
in my life - the beatles


[Intro]

e|----5------4-----|
B|--2---2-3-5------|
G|--2--------------|
D|-----------------|
A|--0--------------|
E|---------------0-| 2x

A F#m
There are places I'll remember
Bm Dm A
All my life though some have changed
A F#m
Some for ever not for better
Bm Dm A
Some have gone, and some remain.

F#m Bm
All these places have their moments
G A
With lovers and friends, I still can recall
F#m Bm
Some are dead and some are living
D Dm A
In my life, I've loved them all


[Instrumental]

e|----5------4-----|
B|--2---2-3-5------|
G|--2--------------|
D|-----------------|
A|--0--------------|
E|---------------0-|


But of all these friends and lovers
There is no one compared with you
And these memories lose their meaning
When I think of love as something new

Thought I know I'll never lose affection
For people and things that went before
I know I'll often stop and think about them
In my life I'll love you more


[Solo]

e|------------------|-----------------|------------------|-----------------|
B|--------5h7p5-----|---------------8-|-7-7-7-7-7/5\7----|-5-5-5-5-5/3\5---|
G|-----6------------|------6h7p6-7-9--|--9-7-6-------7-4-|--7-6-4-------4--|
D|-7-9--7------9-6--|-4/6/7-----------|--------9---------|--------7------7-|
A|------------------|-----------------|------------------|-----------------|
E|------------------|-----------------|------------------|-----------------|

e|------------------|-----------------|------------------|------------------------|
B|--------5h7p5-----|---------------8-|-7-7-7-7-7/5\7----|-5-5--------------------|
G|-----6------------|------6h7p6-7-9--|--9-7-6-------7-4-|--6-6-------------------|
D|-7-9--7------9-6--|-4/6/7-----------|--------9---------|-----7-6-7-6-4----------|
A|------------------|-----------------|------------------|------7--------7-5-4----|
E|------------------|-----------------|------------------|--------------------7-5-|
"Thought I..."
Thought I know I'll never lose affection
For people and things that went before
I know I'll often stop and think about them
In my life I'll love you more
In my life I'll love you more


[Ending]

e|----5------4---4-2-4-5-|
B|--2---2-3-5----3-----5-|
G|--2------------4-----6-|
D|---------------------7-|
A|-----------------------|
E|-----------------------|



************************************

| h Hammer-on
| p Pull-off
| / Slide up
| \ Slide down

************************************
Tunning: Standard (E A D G B e)
---------------------------------------------------------------

THE BEATLES - GOT TO GET YOU INTO MY LIFE (Lennon & McCartney)
From REVOLVER album. Released on 5th August 1966.

---------------------------------------------------------------

Tabbed by:PJVillanueva

I was alone, I took a ride,
I didn't know what I would find there
Another road where maybe I
Could see another kind of mind there

Ooooh, then I suddenly see you,
Ooooh, did I tell you I need you
Every single day of my life

You didn't run, you didn't lie
You knew I wanted just to hold you
And had you gone you knew in time
We'd meet again for I had told you

Ooooh, you were meant to be near me
Ooooh, and I want you hear me
Say we'll be together every day

Got to get you into my life

What can I do, what can I be,
When I'm with you I want to stay there
If I'm true I'll never leave
And if I do I know the way there

Ooooh, then I suddenly see you,
Ooooh, did I tell you I need you
Every single day of my life

Got to get you into my life
Got to get you into my life

I was alone, I took a ride,
I didn't know what I would find there
Another road where maybe I
Could see another kind of mind there

Then suddenly I see you,
Did I tell you I need you...


12/8


x x x x x x x x
e|------ ------ ------ ------|------ ------ ------ ------|
B|----0-H1---3------0-H1-----|----1---------1------------|
G|----0-H2---0------0-H2-----|----0---------0------0-----|
D|----0-H0---0------0-H3-----|----3---------2------------|
A|---------------------------|---------------------------|
E|3--------------------------|---------------------------|

x x x x x x x x
e|3----- ------ ------ ------|------ ------ ------ ------|
B|---------------------------|---------------------------|
G|0--------------------------|---------------------------|
D|---------------------------|---------------------------|
A|---------------------------|---------------------------|
E|---------------------------|---------------------------|

e|15---- ------ ------ ------|------ ------ ------ ------|
B|---------------------------|---------------------------|
G|---------------------------|---------------------------|
D|---------------------------|---------------------------|
A|---------------------------|---------------------------|
E|---------------------------|---------------------------|


00:07

e|3----- 3----- 3----- 3-----|3----- 3----- 3----- 3-----|
B|3------3------3------3-----|3------3------3------3-----|
G|0------0------0------0-----|0------0------0------0-----|
D|0------0------0------0-----|0------0------0------0-----|
A|---------------------------|---------------------------|
E|3------3------3------3-----|3------3------3------3-----|
I was alone, I took I didn't what would
a ride, know I find
e|------ ------ ------ ------|------ ------ ------ ----5-|
B|---------------------------|-------------------------6-|
G|0--------------------------|-------------------------5-|
D|---------------------------|---------------------------|
A|---------------------------|---------------------------|
E|---------------------------|---------------------------|


e|3----- 3----- 3----- 3-----|3----- 3----- 3----- 3-----|
B|1------1------1------1-----|1------1------1------1-----|
G|2------2------2------2-----|2------2------2------2-----|
D|3------3------3------3-----|3------3------3------3-----|
A|---------------------------|---------------------------|
E|---------------------------|---------------------------|
there
e|------ ------ ------ ------|------ ------ ----0- ------|
B|------------------3------1-|--------------1----------3-|
G|--------------2----------2-|-----------2-------------0-|
D|-----------3-------------3-|-------------------------0-|
A|---------------------------|---------------------------|
E|---------------------------|---------------------------|


e|3----- 3----- 3----- 3-----|3----- 3----- 3----- 3-----|
B|3------3------3------3-----|3------3------3------3-----|
G|0------0------0------0-----|0------0------0------0-----|
D|0------0------0------0-----|0------0------0------0-----|
A|---------------------------|---------------------------|
E|3------3------3------3-----|3------3------3------3-----|
Another road where I could kind mind
maybe see another of
e|------ ------ ------ ------|------ ------ ------ ----5-|
B|---------------------------|-------------------------6-|
G|0--------------------------|-------------------------5-|
D|---------------------------|---------------------------|
A|---------------------------|---------------------------|
E|---------------------------|---------------------------|


e|3----- 3----- 3----- 3-----|3----- 3----- 3----- 3-----|
B|1------1------1------1-----|1------1------1------1-----|
G|2------2------2------2-----|2------2------2------2-----|
D|3------3------3------3-----|3------3------3------3-----|
A|---------------------------|---------------------------|
E|---------------------------|---------------------------|
there Ooooh,
e|------ ------ ------ ------|------ ------ ----0- ----2-|
B|------------------3------1-|--------------1----------3-|
G|--------------2----------2-|-----------2-------------4-|
D|-----------3-------------3-|---------------------------|
A|---------------------------|---------------------------|
E|---------------------------|---------------------------|


00:21

e|7----- 7----- 7----- 7-----|7----- 7----- ------ ------|
B|7------7------7------7-----|7------7------7------7-----|
G|7------7------7------7-----|7------7------7------7-----|
D|9------9------8------8-----|7------7------6------6-----|
A|9------9------9------9-----|9------9------7------7-----|
E|7------7------7------7-----|7------7-------------------|
then suddenly see you, Ooooh,
I
e|------ 2----- 2----- 2-----|2----- 2----- 2------2---2-|
B|-------3------3------3-----|3------3------3------3---3-|
G|-------4------3------3-----|2------2------1------1---4-|
D|---------------------------|---------------------------|
A|---------------------------|---------------------------|
E|---------------------------|---------------------------|


e|7----- 7----- 7----- 7-----|7----- 7----- ------ ------|
B|7------7------7------7-----|7------7------7------7-----|
G|7------7------7------7-----|7------7------7------7-----|
D|9------9------8------8-----|7------7------6------6-----|
A|9------9------9------9-----|9------9------7------7-----|
E|7------7------7------7-----|7------7-------------------|
did tell you need you
I I
e|------ 2----- 2----- 2-----|2----- 2----- 2----- 2-----|
B|-------3------3------3-----|3------3------3------3-----|
G|-------4------3------3-----|2------2------1------1-----|
D|---------------------------|---------------------------|
A|---------------------------|---------------------------|
E|---------------------------|---------------------------|


e|0----- 0----- 0----- 0-----|0----- 0----- 2----- 2-----|
B|1------1------0------0-----|1------1------3------3-----|
G|0------0------0------0-----|2------2------2------2-----|
D|2------2------2------2-----|2------2------0------0-----|
A|3------3------2------2-----|0------0-------------------|
E|---------------------------|---------------------------|
Every single day of my
e|3----- 3----- 3----- 3-----|3----- 3----- 5----- 5-----|
B|5------5------5------5-----|5------5------7------7-----|
G|5------5------4------4-----|2------2------7------7-----|
D|---------------------------|---------------------------|
A|---------------------------|---------------------------|
E|---------------------------|---------------------------|

x x x x x x X X X X X X
e|3----- ------ ------ ------|------ ------ ------ ------|
B|3--------------------------|---------------------------|
G|0--------------------------|---------------------------|
D|0--------------------------|---------------------------|
A|---------------------------|---------------------------|
E|3--------------------------|---------------------------|
life
e|7----- ------ ------ ------|------ ------ ------ ------|
B|8--------------------------|---------------------------|
G|7--------------------------|---------------------------|
D|---------------------------|---------------------------|
A|---------------------------|---------------------------|
E|---------------------------|---------------------------|

00:35

e|3----- 3----- 3----- 3-----|3----- 3----- 3----- 3-----|
B|3------3------3------3-----|3------3------3------3-----|
G|0------0------0------0-----|0------0------0------0-----|
D|0------0------0------0-----|0------0------0------0-----|
A|---------------------------|---------------------------|
E|3------3------3------3-----|3------3------3------3-----|
You didn't you didn't You I wanted to hold
run, you lie knew just
e|------ ------ ------ ------|------ ------ ------ ----5-|
B|---------------------------|-------------------------6-|
G|0--------------------------|-------------------------5-|
D|---------------------------|---------------------------|
A|---------------------------|---------------------------|
E|---------------------------|---------------------------|


e|3----- 3----- 3----- 3-----|3----- 3----- 3----- 3-----|
B|1------1------1------1-----|1------1------1------1-----|
G|2------2------2------2-----|2------2------2------2-----|
D|3------3------3------3-----|3------3------3------3-----|
A|---------------------------|---------------------------|
E|---------------------------|---------------------------|
you
e|------ ------ ------ ------|------ ------ ----0- ------|
B|------------------3------1-|--------------1----------3-|
G|--------------2----------2-|-----------2-------------0-|
D|-----------3-------------3-|-------------------------0-|
A|---------------------------|---------------------------|
E|---------------------------|---------------------------|


e|3----- 3----- 3----- 3-----|3----- 3----- 3----- 3-----|
B|3------3------3------3-----|3------3------3------3-----|
G|0------0------0------0-----|0------0------0------0-----|
D|0------0------0------0-----|0------0------0------0-----|
A|---------------------------|---------------------------|
E|3------3------3------3-----|3------3------3------3-----|
And you you in we'd again I had told
had gone knew time meet for
e|------ ------ ------ ------|------ ------ ------ ----5-|
B|---------------------------|-------------------------6-|
G|0--------------------------|-------------------------5-|
D|---------------------------|---------------------------|
A|---------------------------|---------------------------|
E|---------------------------|---------------------------|


e|3----- 3----- 3----- 3-----|3----- 3----- 3----- 3-----|
B|1------1------1------1-----|1------1------1------1-----|
G|2------2------2------2-----|2------2------2------2-----|
D|3------3------3------3-----|3------3------3------3-----|
A|---------------------------|---------------------------|
E|---------------------------|---------------------------|
you Ooooh,
e|------ ------ ------ ------|------ ------ ----0- ----2-|
B|------------------3------1-|--------------1----------3-|
G|--------------2----------2-|-----------2-------------4-|
D|-----------3-------------3-|---------------------------|
A|---------------------------|---------------------------|
E|---------------------------|---------------------------|


00:49

e|7----- 7----- 7----- 7-----|7----- 7----- ------ ------|
B|7------7------7------7-----|7------7------7------7-----|
G|7------7------7------7-----|7------7------7------7-----|
D|9------9------8------8-----|7------7------6------6-----|
A|9------9------9------9-----|9------9------7------7-----|
E|7------7------7------7-----|7------7-------------------|
You were to be near me Ooooh,
meant
e|------ 2----- 2----- 2-----|2----- 2----- 2----- 2---2-|
B|-------3------3------3-----|3------3------3------3---3-|
G|-------4------3------3-----|2------2------1------1---4-|
D|---------------------------|---------------------------|
A|---------------------------|---------------------------|
E|---------------------------|---------------------------|


e|7----- 7----- 7----- 7-----|7----- 7----- ------ ------|
B|7------7------7------7-----|7------7------7------7-----|
G|7------7------7------7-----|7------7------7------7-----|
D|9------9------8------8-----|7------7------6------6-----|
A|9------9------9------9-----|9------9------7------7-----|
E|7------7------7------7-----|7------7-------------------|
and I want you hear me
to
e|------ 2----- 2----- 2-----|2----- 2----- 2----- 2-----|
B|-------3------3------3-----|3------3------3------3-----|
G|-------4------3------3-----|2------2------1------1-----|
D|---------------------------|---------------------------|
A|---------------------------|---------------------------|
E|---------------------------|---------------------------|


e|0----- 0----- 0----- 0-----|0----- 0----- 2----- 2-----|
B|1------1------0------0-----|1------1------3------3-----|
G|0------0------0------0-----|2------2------2------2-----|
D|2------2------2------2-----|2------2------0------0-----|
A|3------3------2------2-----|0------0-------------------|
E|---------------------------|---------------------------|
Say we'll be together every
e|3----- 3----- 3----- 3-----|3----- 3----- 5----- 5-----|
B|5------5------5------5-----|5------5------7------7-----|
G|5------5------4------4-----|2------2------7------7-----|
D|---------------------------|---------------------------|
A|---------------------------|---------------------------|
E|---------------------------|---------------------------|

x x x x x x X X X X X X
e|3----- ------ ------ ------|------ ------ ------ ------|
B|3--------------------------|---------------------------|
G|0--------------------------|---------------------------|
D|0--------------------------|---------------------------|
A|---------------------------|---------------------------|
E|3--------------------------|---------------------------|
day
e|7----- ------ ------ ------|------ ------ ------ ------|
B|8--------------------------|---------------------------|
G|7--------------------------|---------------------------|
D|---------------------------|---------------------------|
A|---------------------------|---------------------------|
E|---------------------------|---------------------------|


01:03

e|3----- 3----- 3----- 3-----|3----- 3----- 3----- 3-----|
B|3------3------3------3-----|5------5------5------5-----|
G|0------0------0------0-----|5------5------5------5-----|
D|0------0------0------0-----|5------5------5------5-----|
A|---------------------------|3------3------3------3-----|
E|3------3------3------3-----|---------------------------|
Got to get you my life
into
e|------ ------ ------ ------|----3- 5---6- ------ ----3-|
B|---------------------------|----5--5---5--3---6------5-|
G|---------------------------|----5--5---5--5---5------5-|
D|---------------------------|---------------------------|
A|---------------------------|---------------------------|
E|---------------------------|---------------------------|


e|3----- 3----- 3----- 3-----|------ 5---6- ------ ----3-|
B|5------5------5------5-----|----8-------------6------3-|
G|5------5------5------5-----|----7---------7----------0-|
D|5------5------5------5-----|0-------------7------------|
A|3------3------3------3-----|---------------------------|
E|---------------------------|---------------------------|

e|------ ------ ------ ------|----3- 5---6- ------ ----3-|
B|---------------------------|----5--5---5--3---6------3-|
G|---------------------------|----5--5---5--5---5------4-|
D|---------------------------|---------------------------|
A|---------------------------|---------------------------|
E|---------------------------|---------------------------|


e|3----- 3----- 3----- 3-----|3----- 3----- 3----- 3-----|
B|3------3------3------3-----|3------3------3------3-----|
G|0------0------0------0-----|0------0------0------0-----|
D|0------0------0------0-----|0------0------0------0-----|
A|---------------------------|---------------------------|
E|3------3------3------3-----|3------3------3------3-----|


01:13

e|3----- 3----- 3----- 3-----|3----- 3----- 3----- 3-----|
B|3------3------3------3-----|3------3------3------3-----|
G|0------0------0------0-----|0------0------0------0-----|
D|0------0------0------0-----|0------0------0------0-----|
A|---------------------------|---------------------------|
E|3------3------3------3-----|3------3------3------3-----|
What I do, what I be when with I want stay
can can I'm you to
e|------ ------ ------ ------|------ ------ ------ ----5-|
B|---------------------------|-------------------------6-|
G|0--------------------------|-------------------------5-|
D|---------------------------|---------------------------|
A|---------------------------|---------------------------|
E|---------------------------|---------------------------|


e|3----- 3----- 3----- 3-----|3----- 3----- 3----- 3-----|
B|1------1------1------1-----|1------1------1------1-----|
G|2------2------2------2-----|2------2------2------2-----|
D|3------3------3------3-----|3------3------3------3-----|
A|---------------------------|---------------------------|
E|---------------------------|---------------------------|
there
e|------ ------ ------ ------|------ ------ ----0- ------|
B|------------------3------1-|--------------1----------3-|
G|--------------2----------2-|-----------2-------------0-|
D|-----------3-------------3-|-------------------------0-|
A|---------------------------|---------------------------|
E|---------------------------|---------------------------|


e|3----- 3----- 3----- 3-----|3----- 3----- 3----- 3-----|
B|3------3------3------3-----|3------3------3------3-----|
G|0------0------0------0-----|0------0------0------0-----|
D|0------0------0------0-----|0------0------0------0-----|
A|---------------------------|---------------------------|
E|3------3------3------3-----|3------3------3------3-----|
If I'm true I'll leave and I do I know
never If the way
e|------ ------ ------ ------|------ ------ ------ ----5-|
B|---------------------------|-------------------------6-|
G|0--------------------------|-------------------------5-|
D|---------------------------|---------------------------|
A|---------------------------|---------------------------|
E|---------------------------|---------------------------|


e|3----- 3----- 3----- 3-----|3----- 3----- 3----- 3-----|
B|1------1------1------1-----|1------1------1------1-----|
G|2------2------2------2-----|2------2------2------2-----|
D|3------3------3------3-----|3------3------3------3-----|
A|---------------------------|---------------------------|
E|---------------------------|---------------------------|
there Ooooh,
e|------ ------ ------ ------|------ ------ ----0- ----2-|
B|------------------3------1-|--------------1----------3-|
G|--------------2----------2-|-----------2-------------4-|
D|-----------3-------------3-|---------------------------|
A|---------------------------|---------------------------|
E|---------------------------|---------------------------|


01:27

e|7----- 7----- 7----- 7-----|7----- 7----- ------ ------|
B|7------7------7------7-----|7------7------7------7-----|
G|7------7------7------7-----|7------7------7------7-----|
D|9------9------8------8-----|7------7------6------6-----|
A|9------9------9------9-----|9------9------7------7-----|
E|7------7------7------7-----|7------7-------------------|
then suddenly see you, Ooooh,
I
e|------ 2----- 2----- 2-----|2----- 2----- 2----- 2---2-|
B|-------3------3------3-----|3------3------3------3---3-|
G|-------4------3------3-----|2------2------1------1---4-|
D|---------------------------|---------------------------|
A|---------------------------|---------------------------|
E|---------------------------|---------------------------|


e|7----- 7----- 7----- 7-----|7----- 7----- ------ ------|
B|7------7------7------7-----|7------7------7------7-----|
G|7------7------7------7-----|7------7------7------7-----|
D|9------9------8------8-----|7------7------6------6-----|
A|9------9------9------9-----|9------9------7------7-----|
E|7------7------7------7-----|7------7-------------------|
did tell you need you
I I
e|------ 2----- 2----- 2-----|2----- 2----- 2----- 2-----|
B|-------3------3------3-----|3------3------3------3-----|
G|-------4------3------3-----|2------2------1------1-----|
D|---------------------------|---------------------------|
A|---------------------------|---------------------------|
E|---------------------------|---------------------------|


e|0----- 0----- 0----- 0-----|0----- 0----- 2----- 2-----|
B|1------1------0------0-----|1------1------3------3-----|
G|0------0------0------0-----|2------2------2------2-----|
D|2------2------2------2-----|2------2------0------0-----|
A|3------3------2------2-----|0------0-------------------|
E|---------------------------|---------------------------|
Every single day of my
e|3----- 3----- 3----- 3-----|3----- 3----- 5----- 5-----|
B|5------5------5------5-----|5------5------7------7-----|
G|5------5------4------4-----|2------2------7------7-----|
D|---------------------------|---------------------------|
A|---------------------------|---------------------------|
E|---------------------------|---------------------------|

x x x x x x X X X X X X
e|3----- ------ ------ ------|------ ------ ------ ------|
B|3--------------------------|---------------------------|
G|0--------------------------|---------------------------|
D|0--------------------------|---------------------------|
A|---------------------------|---------------------------|
E|3--------------------------|---------------------------|
life
e|7----- ------ ------ ------|------ ------ ------ ------|
B|8--------------------------|---------------------------|
G|7--------------------------|---------------------------|
D|---------------------------|---------------------------|
A|---------------------------|---------------------------|
E|---------------------------|---------------------------|


01:41

e|3----- 3----- 3----- 3-----|3----- 3----- 3----- 3-----|
B|3------3------3------3-----|5------5------5------5-----|
G|0------0------0------0-----|5------5------5------5-----|
D|0------0------0------0-----|5------5------5------5-----|
A|---------------------------|3------3------3------3-----|
E|3------3------3------3-----|---------------------------|
Got to get you my life
into
e|------ ------ ------ ------|----3- 5---6- ------ ----3-|
B|---------------------------|----5--5---5--3---6------5-|
G|---------------------------|----5--5---5--5---5------5-|
D|---------------------------|---------------------------|
A|---------------------------|---------------------------|
E|---------------------------|---------------------------|


e|3----- 3----- 3----- 3-----|------ 5---6- ------ ----3-|
B|5------5------5------5-----|----8-------------6------3-|
G|5------5------5------5-----|----7---------7----------0-|
D|5------5------5------5-----|0-------------7------------|
A|3------3------3------3-----|---------------------------|
E|---------------------------|---------------------------|

e|------ ------ ------ ------|----3- 5---6- ------ ----3-|
B|---------------------------|----5--5---5--3---6------3-|
G|---------------------------|----5--5---5--5---5------4-|
D|---------------------------|---------------------------|
A|---------------------------|---------------------------|
E|---------------------------|---------------------------|


e|3----- 3----- 3----- 3-----|3----- 3----- 3----- 3-----|
B|3------3------3------3-----|3------3------3------3-----|
G|0------0------0------0-----|0------0------0------0-----|
D|---------------------------|---------------------------|
A|---------------------------|---------------------------|
E|---------------------------|---------------------------|


01:52

e|----0-H2---3- ------ 1-----|------ ------ ------ ------|
B|----3------3---------1-----|--1-----------1----1H3-----|
G|0---0-H2---4------0--0-----|--0-----------0------0-----|
D|---------------------------|--2B3-------3R2------------|
A|---------------------------|---------------------------|
E|---------------------------|---------------------------|


01:55

e|------ ------ ----3- ------|------ ------ ----3- ------|
B|3------3------3------------|3------3------3------------|
G|0------0------0------------|0------0------0------------|
D|0------0------0------------|2------2------2------------|
A|---------------------------|3------3------3------3-----|
E|3------3------3------3-----|---------------------------|
Got to get you my life
into
e|------ ------ ------ ------|----3- 5---6- ------ ----3-|
B|---------------------------|----5--5---5--3---6------5-|
G|---------------------------|----5--5---5--5---5------5-|
D|---------------------------|---------------------------|
A|---------------------------|---------------------------|
E|---------------------------|---------------------------|


e|------ ------ ----3- ------|------ ------ ------ ------|
B|3------3------3------------|3--------------------------|
G|0------0------0------------|0--------------------------|
D|2------2------2------------|0--------------------------|
A|3------3------3------3-----|---------------------------|
E|---------------------------|---------------------------|

e|------ ------ ------ ------|----3- 5---6- ------ ----3-|
B|---------------------------|----5--5---5--3---6------3-|
G|---------------------------|----5--5---5--5---5------4-|
D|---------------------------|---------------------------|
A|---------------------------|---------------------------|
E|---------------------------|---------------------------|


02:02

e|------ ------ ----3- ------|------ ----3- ------ ------|
B|3------3-------------------|3--------------------3-----|
G|0------0-----------------0-|------------------0--------|
D|0------0-------------------|---------------------------|
A|---------------------------|---------------------------|
E|3------3------3------3-----|3------3------3------3-----|
I was
alone,
e|------ ------ ------ ------|------ ------ ------ ------|
B|---------------------------|---------------------------|
G|---------------------------|---------------------------|
D|---------------------------|---------------------------|
A|---------------------------|---------------------------|
E|---------------------------|---------------------------|


e|3----- 3----- 3----- 3-----|3----- 3----- 3----- 3-----|
B|3------3------3------3-----|3------3------3------3-----|
G|0------0------0------0-----|0------0------0------0-----|
D|---------------------------|---------------------------|
A|---------------------------|---------------------------|
E|---------------------------|---------------------------|
I took I didn't what would there
a ride, know I find


02:09

e|10---- 10---- 10---- 10----|10---- 10---- 10---- 10----|
B|12-----12-----12-----12----|12-----12-----12-----12----|
G|12-----12-----12-----12----|12-----12-----12-----12----|
D|---------------------------|---------------------------|
A|---------------------------|---------------------------|
E|---------------------------|---------------------------|
Another where I could another
road maybe see
e|----7- 8--10- ----7- 8-----|----5- ------ 3----- 7-----|
B|----8-10--12------8-10-----|----6---------5------8-----|
G|----0--0---0------0--0-----|----0---------0------0-----|
D|---------------------------|---------------------------|
A|---------------------------|---------------------------|
E|---------------------------|---------------------------|

e|15---- ------ ------ ------|------ ------ ------ ------|
B|---------------------------|---------------------------|
G|---------------------------|---------------------------|
D|---------------------------|---------------------------|
A|---------------------------|---------------------------|
E|---------------------------|---------------------------|

-
-
-
e|10---- 10---- 10---- 10----|10---- 10---- 10---- ------|
B|12-----12-----12-----12----|12-----12-----12-----------|
G|12-----12-----12-----12----|12-----12-----12-----------|
D|---------------------------|---------------------------|
A|---------------------------|---------------------------|
E|---------------------------|---------------------------|
kind mind there Then suddenly
of
e|----7- 8--10- ----7- 8-----|----5- ------ 3----- 7-----|
B|----8-10--12------8-10-----|----6---------5------8-----|
G|----0--0---0------0--0-----|----0---------0------0-----|
D|---------------------------|---------------------------|
A|---------------------------|---------------------------|
E|---------------------------|---------------------------|

e|15---- ------ ------ ------|------ ------ ------ ------|
B|---------------------------|---------------------------|
G|---------------------------|---------------------------|
D|---------------------------|---------------------------|
A|---------------------------|---------------------------|
E|---------------------------|---------------------------|
...................... Fade out .......................

-
- -
-
e|------ ------ ------ ------|10---- 10---- 10---- 10----|
B|---------------------------|12-----12-----12-----12----|
G|---------------------------|12-----12-----12-----12----|
D|---------------------------|---------------------------|
A|---------------------------|---------------------------|
E|---------------------------|---------------------------|
I see you Did I tell
e|----7- 8--10- ----7- 8-----|----5- ------ 3----- 7-----|
B|----8-10--12------8-10-----|----6---------5------8-----|
G|----0--0---0------0--0-----|----0---------0------0-----|
D|---------------------------|---------------------------|
A|---------------------------|---------------------------|
E|---------------------------|---------------------------|

e|15---- ------ ------ ------|------ ------ ------ ------|
B|---------------------------|---------------------------|
G|---------------------------|---------------------------|
D|---------------------------|---------------------------|
A|---------------------------|---------------------------|
E|---------------------------|---------------------------|
.......................................................

-
-
-
e|10---- 10---- 10---- 10----|------ ------ ------ ------|
B|12-----12-----12-----12----|---------------------------|
G|12-----12-----12-----12----|---------------------------|
D|---------------------------|---------------------------|
A|---------------------------|---------------------------|
E|---------------------------|---------------------------|
you I need you every single
e|----7- 8--10- ----7- 8-----|----5- ------ 3----- 7-----|
B|----8-10--12------8-10-----|----6---------5------8-----|
G|----0--0---0------0--0-----|----0---------0------0-----|
D|---------------------------|---------------------------|
A|---------------------------|---------------------------|
E|---------------------------|---------------------------|

e|15---- ------ ------ ------|------ ------ ------ ------|
B|---------------------------|---------------------------|
G|---------------------------|---------------------------|
D|---------------------------|---------------------------|
A|---------------------------|---------------------------|
E|---------------------------|---------------------------|
.......................................................


B Bend
R Release
/ Slide up
\ Slide down
H Hammer-on
P Pull-off
~ Vibrato
+ Harmonic
x Mute note
. Play note like a dot in standard notation
^ Ties two notes together
(. Pause
Song info
In My Life
The Beatles
2001
  • Pop
  • Rock
  • Ballad
  • Pop Rock
  • Vocal
Alternative tracks
Similar songs
Like The Way I Do - Melissa Etheridge
Peek-A-Boo - Siouxsie and the Banshees
Theme For Young Lovers - The Shadows

Hi! Hope you enjoy backing track experience.
If you want to help us in the development of the project, feel free to donate!