Let It Be - The Beatles
00:00 / 00:00
Tabs and lyrics
Tunning: Standard (E A D G B e)
------------------------------------------------------------

THE BEATLES - LET IT BE (Lennon & McCartney). Released as a
single w YOU KNOW MY NAME (LOOK UP THE NUMBER)
as the B side on 6th March 1970.

------------------------------------------------------------

Tabbed by:PJVillanueva


When I find myself in times of trouble
Mother Mary comes to me
Speaking words of wisdom, let it be.

And in my hour of darkness
She is standing right in front of me
Speaking words of wisdom, let it be.

Let it be, let it be.
Let it be, let it be.
Whisper words of wisdom, let it be.

And when the broken hearted people
Living in the world agree,
There will be an answer, let it be.

For though they may be parted there is
Still a chance that they will see
There will be an answer, let it be

Let it be, let it be.
Let, let it, let it be.
Yeah, there will be an answer, let it be.

Let it be, let it be.
Let it be, let it be.
Whisper words of wisdom, let it be.

(Instrumental Break)

Let it be, let it be.
Let it be, let it be.
Whisper words of wisdom, let it be.

And when the night is cloudy,
There is still a light that shines on me.
Shine on 'til tomorrow, let it be.

I wake up to the sound of music
Mother Mary comes to me
Speaking words of wisdom, let it be.

Let it be, let it be.
Let it be, yeah let it be.
Oh there will be an answer, let it be.

Let it be, let it be.
Let it be, yeah let it be.
Oh there will be an answer, let it be.

Let it be, let it be.
Let it be, yeah let it be.
Whisper words of wisdom, let it be.


C G Am Fmaj7 F6
e|0------ 0------ 3------ 3------|0------ 0---0-- 0------ -------|
B|1-------1-------3-------3------|1-------1---1---1-------3------|
G|0-------0-------0-------0------|2-------2---2---2-------2------|
D|-------------------------------|------------------------3------|
A|3---3-------3------------------|0---0--------------------------|
E|--------------2/3---3-------3--|------------3---1---1-------1--|


C G F C
e|0------ 0------ 3------ 3------|5------ 3---1-- 0------ -------|
B|1-------1-------3-------3------|6-------5---3---1--------------|
G|0-------0-------0-------0------|----------------0--------------|
D|-------------------------------|3------------------------------|
A|3---3-------3------------------|----------------3---3---3---3--|
E|--------------2/3----3------3--|-------------------------------|
When
I


00:13
C G Am Fmaj7 F6
e|0------ 0------ 3------ 3------|0------ 0---0-- 0------ -------|
B|1-------1-------3-------3------|1-------1---1---1-------3------|
G|0-------0-------0-------0------|2-------2---2---2-------2------|
D|-------------------------------|------------------------3------|
A|3---3-------3------------------|0---0--------------------------|
E|--------------2/3---3-------3--|------------3---1---1-------1--|
find in times trouble Mother comes to
myself of Mary me

C G F C
e|0------ 0------ 3------ 3------|------- ------- 0------ 0------|
B|1-------1-------3-------3------|----------------1-------1------|
G|0-------0-------0-------0------|2-------0-------0-------0------|
D|-------------------------------|3-------2---3---2--------------|
A|3---3-------3------------------|------------5---3---3-------3--|
E|--------------2/3---3-------3--|1---1--------------------------|
speaking of Let be And
words wisdom it

00:26
C G Am Fmaj7 F6
e|0------ 0------ 3------ 3------|0------ 0---0-- 0------ -------|
B|1-------1-------3-------3------|1-------1---1---1-------3------|
G|0-------0-------0-------0------|2-------2---2---2-------2------|
D|-------------------------------|------------------------3------|
A|3---3--------------------------|0------------------------------|
E|--------------2/3-----------3--|------------3---1-----------1--|
in hour of she is right in of
my darkness standing front me

C G F C
e|0------ 0------ 3------ 3------|------- ------- 0------ 0------|
B|1-------1-------3-------3------|----------------1-------1------|
G|0-------0-------0-------0------|2-------0-------0-------0------|
D|-------------------------------|3-------2---3---2--------------|
A|3---3--------------------------|------------5---3---3---3---2--|
E|--------------2/3---3-------3--|1---1--------------------------|
speaking of Let be Let be
words wisdom it it

00:39
Am Am7 Fmaj7 C
e|0------ 0------ 0------ 0------|0------ 0------ 0------ 0------|
B|1-------1-------1-------1------|1-------1-------1-------1------|
G|2-------2-------2-------2------|2-------2-------0-------0------|
D|-------------------------------|-------------------------------|
A|0-----------0------------------|----------------3---3---3---3--|
E|----------------3---3---3---3--|1-------1----------------------|
let be let be let be
it it it


e|0------ 0------ 3------ 3------|------- ------- 0---0-- 0---0--|
B|1-------1-------3-------3------|----------------1---1---1---1--|
G|0-------0-------0-------0------|2-------0-------0---0---0---0--|
D|-------------------------------|3-------2---3------------------|
A|3---3-------3------------------|------------5---3---3---3---3--|
E|--------------2/3---3-------3--|1---1--------------------------|
Whisper of let be And
words wisdom it


00:52

e|0------ 0------ 3------ 3------|0------ 0---0-- 0------ -------|
B|1-------1-------3-------3------|1-------1---1---1-------3------|
G|0-------0-------0-------0------|2-------2---2---2-------2------|
D|-------------------------------|------------------------3------|
A|3---3-------3------------------|0---0--------------------------|
E|--------------2/3-----------3--|------------3---1---1-------1--|
when broken people living the agree
the hearted in world


e|0------ 0------ 3------ 3------|------- ------- 0---0-- 0------|
B|1-------1-------3-------3------|1---------------1---1---1------|
G|0-------0-------0-------0------|2-------0-------0---0---0------|
D|-------------------------------|3-------2---3------------------|
A|3---3-------3------------------|------------5---3-------3------|
E|--------------2/3-----------3--|----1--------------------------|
There will an let be For
be answer it

01:05

e|0------ 0------ 3------ 3------|0------ 0---0-- 0------ -------|
B|1-------1-------3-------3------|1-------1---1---1-------3------|
G|0-------0-------0-------0------|2-------2---2---2-------2------|
D|-------------------------------|------------------------3------|
A|3---3-------3------------------|0------------------------------|
E|--------------2/3---3----------|------------3---1-------1---1--|
though be there still that will
they parted is a chance they see
may

xxx x X X x
e|0------ 0------ 3------ 3------|------- ------- 0------ 0------|
B|1-------1-------3-------3------|----------------1-------1------|
G|0-------0-------0-------0------|2-------0-------0-------0------|
D|-------------------------------|3-------2---3---2--------------|
A|3---3--------------------------|------------5---3---3---3---2--|
E|------------0-2-3---3-------3--|1---1--------------------------|
There will an let be Let be
be answer it it

01:19

e|0------ 0------ 0------ 0------|0------ 0------ 0------ 0------|
B|1-------1-------1-------1------|1-------1-------1-------1------|
G|2-------2-------2-------2------|2-------2-------0-------0------|
D|-------------------------------|-------------------------------|
A|0---0-------0------------------|----------------3---3-------3--|
E|----------------3---3-------3--|1---1-------1------------------|
let be let be let be Yeah
it it it


e|0------ 0------ 3------ 3------|------- ------- 0---0-0 0---0--|
B|1-------1-------3-------3------|----------------1---1-1-1---1--|
G|0-------0-------0-------0------|2-------0-------0---0-0-0---0--|
D|-------------------------------|3-------2---3------------------|
A|3---3-------3------------------|------------5---3---3---3---3--|
E|----------------3---3-------3--|1------------------------------|
there be answer let be Let be
will an it it

01:32

e|0------ 0------ 0------ 0------|0------ 0------ 0------ 0------|
B|1-------1-------1-------1------|1-------1-------1-------1------|
G|2-------2-------2-------2------|2-------2-------0-------0------|
D|-------------------------------|-------------------------------|
A|0---0-------0------------------|----------------3---3-------3--|
E|----------------3---3-------3--|1---1-------1------------------|
let be let be let be
it it it


e|0------ 0------ 3------ 3------|------- ------- 0---0-0 0-0-0--|
B|1-------1-------3-------3------|----------------1---1-1-1-1-1--|
G|0-------0-------0-------0------|2-------0-------0---0-0-0-0-0--|
D|-------------------------------|3-------2---3------------------|
A|3---3-------3------------------|------------5---3---3---3---3--|
E|----------------3---3-------3--|1------------------------------|
whisper of let be
words wisdom it

F C Bb F G F C
e|5------ ------- ------- -------|------- ------- ------- -------|
B|6-------8---6---5-------3---1--|0-------1-------1--------------|
G|5-------5---5---5-------3---2--|0-------2-------0--------------|
D|----------------5-------3---3--|0-------3-------2--------------|
A|-------------------------------|----------------3-------3------|
E|-------------------------------|3---3---1---1------------------|

e|------- ------- ------- -------|------- ------- ------- -------|
B|-------------------------------|-------------------------------|
G|2-------0---0------------------|-------------------------------|
D|3-------2---0---2-------0------|-------------------------------|
A|----------------3-------1---3--|2-------3-------3--------------|
E|----------------------------5--|3-------1-------0--------------|

e|5------ 3---3-- ------- -------|------- ------- ----3-3 3-3----|
B|6-------5---3---5-------3---1--|0-------1-------1---5-5\3-1----|
G|5-------5---4---5-------3---2--|0-------2-------0-----------2--|
D|----------5---5-5---------3---0|0-------3-------2--------------|
A|-------------------------------|----------------3--------------|
E|-------------------------------|3-------1-------0--------------|

e|------- ------- ------- -------|------- ------- ------- -------|
B|-------------------------------|-------------------------------|
G|-------------------------------|-------------------------------|
D|-------------------------------|-------------------------------|
A|-------------------------------|-------------------------------|
E|-------------------------------|----------------------------3H5|

SOLO
02:00

e|0---0-- 0---0-- 3---3-- 3---3--|0---0-- 0---0-- 0---0-- -------|
B|1---1---1---1---3---3---3---3--|1---1---1---1---1---1---3---3--|
G|0---0---0---0---0---0---0---0--|2---2---2---2---2---2---2---2--|
D|-------------------------------|------------------------3---3--|
A|3-------3----------------------|0-------0----------------------|
E|----------------3-------3------|----------------3-------1------|

e|------- ------- ------- -------|------- ------- ------- -------|
B|-------------------------------|---------------------------------|
G|-------------------------------|---------------------------------|
D|---------BR--------------------|----5---7P5----------------------|
A|3---3---575-3---5---5-------3H5/7-----------7\5-3-------------5--|
E|------------------------3H5----|---------------------------------|

e|0---0-- 0---0-- 3---3-- 3---3--|------- ------- ----0-0 --0-0--|
B|1---1---1---1---3---3---3---3--|1---1---1---0---1---1-1---1-1--|
G|0---0---0---0---0---0---0---0--|2-------0---0---0---0-0---0-0--|
D|-------------------------------|3-------2---0---2--------------|
A|3-------3----------------------|----------------3---3---3---3--|
E|----------------3-------3------|-------------------------------|

e|------- ------- ------- -------|------- ------- ------- -------|
B|------------------8-10P8-------|---------------------------------|
G|--------------5-79------9\7-5--|7P5------------------------------|
D|--5-5---5---7----/-------------|----7-5--------------------------|
A|7-----7------------------------|----------7\5---3-------------5--|
E|-------------------------------|----------------------------35---|
P


e|0---0-- 0---0-- 3---3-- 3---3--|0---0-0 ----0-- 0------ -------|
B|1---1---1---1---3---3---3---3--|1---1-1-----1---1-------3------|
G|0---0---0---0---0---0---0---0--|2---2-2-----2---2-------2------|
D|-------------------------------|------------------------3------|
A|3-------3----------------------|0-------0----------------------|
E|----------------3-------3------|------------3---1-------1------|

e|------- ------- ------- -------|------- ------- ------- -------|
B|-------------------------------|----8---10P8------------------5--|
G|--------------7/9--7-5H7------7/9-----------9\7-5-----------57---|
D|------5/7---5-----------7--5H7-|-----------------------------H---|
A|7---3--------------------------|---------------------------------|
E|-------------------------------|---------------------------------|

e|0------ 0------ 3------ 3------|------- ------- ------- -------|
B|1-------1-------3-------3------|1---1---1---0---1-------0------|
G|0-------0-------0-------0------|2---2---0---0---0-------0------|
D|-------------------------------|3---3---2---0---2-------2------|
A|3-------3----------------------|----------------3-------2------|
E|----------------3-------3------|-------------------------------|

e|----8-- ------- 101210- 8-----8|------- ------- ------- -------|
B|--------10P8------B--------10-8|----10\8-----------------------|
G|9-----------9------------------|---9----9\7-5---5--------------|
D|-------------------------------|-------------------------------|
A|-------------------------------|-------------------------------|
E|-------------------------------|-------------------------------|
Let be
it


02:27

e|0------ 0------ 0------ 0------|0------ 0------ 0------ 0------|
B|1-------1-------1-------1------|1-------1-------1-------1------|
G|2-------2-------2-------2------|2-------2-------0-------0------|
D|-------------------------------|-------------------------------|
A|0-----------0------------------|----------------3-------3------|
E|----------------3---3---3---3--|1-------1----------------------|
let be let be eh let be
it it it

e|0------ 0------ 3------ 3------|------- ------- ------- -------|
B|1-------1-------3-------3------|-------------------------------|
G|0-------0-------0-------0------|2-------0----------------------|
D|-------------------------------|3-------2---3------------------|
A|3-------3----------------------|------------5------------------|
E|--------------2/3-------3------|1------------------------------|
Whisper of let be Eeeeeeeeeee And
words wisdom it


02:41

e|0------ 0---0-- 3------ 3------|0------ 0---0-- 0------ -------|
B|1-------1---1---3-------3------|1-------1---1---1-------3------|
G|0-------0---0---0-------0------|2-------2---2---2-------2------|
D|-------------------------------|------------------------3------|
A|3-------3----------------------|0---0---0----------------------|
E|----------------3-------3------|------------3---1-------1---1--|
when night is there still that on
the cloudy is a light shines me


e|0------ 0------ 3------ 3------|------- ------- 0------ 0------|
B|1-------1-------3-------3------|1---------------1-------1------|
G|0-------0-------0-------0------|2-------0-------0-------0------|
D|-------------------------------|3-------2---3------------------|
A|3---3-------3------------------|------------5---3-------3------|
E|--------------2/3-------3------|1------------------------------|

e|------- ------- ------- -------|------- ------- ------- -------|
B|-------------------------------|-------------------------------|
G|-------------------------------|----------------5---5----------|
D|-------------------------------|----------------5H7-5----------|
A|-------------------------------|------------------------7\5-3H5|
E|-------------------------------|-------------------------------|
shine tomorrow let be I
until it

02:55

e|0------ 0------ 3------ 3------|1------ 0---0-- 0------ -------|
B|1-------1-------3-------3------|1-------1---1---1-------3------|
G|0-------0-------0-------0------|2-------2---2---2-------2------|
D|-------------------------------|------------------------3------|
A|3---3-------3------------------|0-------0----------------------|
E|--------------2/3-------3------|------------3---1-------1---1--|

e|------- ------- ------- -------|------- ------- ------- -------|
B|-------------------------------|-------------------------------|
G|-------------------------------|-------------------------------|
D|-------------------------------|-------------------------------|
A|3------------------------------|-------------------------------|
E|-------------------------------|-------------------------------|
wake to the of mother comes me
up sound music Mary to


e|0------ 0------ 3------ 3------|------- ------- 0------ 0------|
B|1-------1-------3-------3------|1---------------1-------1------|
G|0-------0-------0-------0------|2-------0-------0-------0------|
D|-------------------------------|3-------2---3---2--------------|
A|3---3--------------------------|------------5---3---3---3---2--|
E|------------0---3-------3------|1---1--------------------------|
speaking of Let be Eeeeeee ah Let be
words wisdom it it

03:09

e|0------ 0------ 0------ 0------|0------ 0------ 0---0-0 --0-0--|
B|1-------1-------1-------1------|1-------1-------1---1-1---1-1--|
G|2-------2-------2-------2------|2-------2-------0---0-0---0-0--|
D|-------------------------------|-------------------------------|
A|0---0-------0------------------|----------------3-------3------|
E|----------------3---3-------3--|1-------1----------------------|
let be let be eh let be Oh
it it it


e|0------ 0------ 3------ 3------|------- ------- 0---0-0 0---0--|
B|1-------1-------3-------3------|----------------1---1-1-1---1--|
G|0-------0-------0-------0------|2-------0-------0---0-0-0---0--|
D|-------------------------------|3-------2---3------------------|
A|3---3-------3------------------|------------5---3-------3------|
E|----------------3---3-------3--|1---1--------------------------|

e|------- ------- ------- -------|------- ------- ------- -------|
B|-------------------------------|-------------------------------|
G|--------------------7B9-7P5-7--|5-----------5---5-------------5|
D|-------------------------------|--------5H7----------------5H7-|
A|-------------------------------|-------------------------------|
E|-------------------------------|----------------------------3H5|
there be answer let be. Eeeeeee Let be
will an it it

03:23

e|0------ 0------ 0------ 0------|0------ 0------ 0---0-- 0---0--|
B|1-------1-------1-------1------|1-------1-------1---1---1---1--|
G|2-------2-------2-------2------|2-------2-------0---0---0---0--|
D|-------------------------------|-------------------------------|
A|0---0-------0------------------|----------------3-------3------|
E|----------------3---3-------3--|1---1-------1------------------|

e|------- ------- ------- -------|------- ------- ------- -------|
B|-------------------------------|----------8-8---8----------1513|
G|----5-------5------------------|5-------79----9-----------B--R-|
D/7-------5H7--------------------|---------/---------------------|
A|----------------7\5-3-5-3------|-------------------------------|
E|-------------------------------|-------------------------------|
let be let be eh let be
it it it


e|0------ 0------ 3------ 3------|------- ------- 0---0-0 0-0-0--|
B|1-------1-------3-------3------|----------------1---1-1-1-1-1--|
G|0-------0-------0-------0------|2-------0-------0---0-0-0-0-0--|
D|-------------------------------|3-------2---3------------------|
A|3---3---3---3------------------|------------5---3-------3------|
E|----------------3---3---3---3--|1------------------------------|

e|------- ------- ------- -------|------- ------- ------- -------|
B|-------------------------------|-------------------------------|
G|14--------------12-------------|-------------------------------|
D|-------------------1412--101214|10----------10--10-------------|
A|---------------------\-------/-|--------1012-------------------|
E|-------------------------------|----------H--------------------|
Whisper of let be Eeeeeeeeeeeeeeeee
words wisdom it


(.

e|5------ 3---1-- ------- -------|------- ------- ------- -------|
B|6-------5---1---5-------3---1--|0-------1-------1--------------|
G|5-------0---0---5-------3---2--|0-------2-------0--------------|
D|----------------5-------3---3--|0-------3-------2--------------|
A|-------------------------------|----------------3--------------|
E|-------------------------------|3-------1-------0--------------|

e|------- ------- ------- -------|------- ------- ------- -------|
B|-------------------------------|-------------------------------|
G|2-------0---0------------------|-------------------------------|
D|3-------2---0---2-------0------|-------------------------------|
A|----------------3-------1---3--|2-------3-------3--------------|
E|----------------------------5--|3-------1-------0--------------|



B Bend
R Release
/ Slide up
\ Slide down
H Hammer-on
P Pull-off
~ Vibrato
+ Harmonic
x Mute note
. Play note like a dot in standard notation
^ Ties two notes together
(. Pause
Tunning: Standard (E A D G B e)
Not positive on the Inturlude or the Outro so email me if you find any mistakes
( jarrod.glover@gmail.com ) Thanks guys and gals




Verse 1
A E F#m D
When I find myself in times of trouble Mother Mary comes to me,
A E D C#m Bm A
Speaking words of wisdom, Let it be,
A E F#m D
And in my hour of darkness she is standing right in front of me,
A E D C#m Bm A
Speaking words of wisdom, Let it be,

Chorus
F#m E D A
Let it be, Let it be, Let it be, Let it be,
A E D C#m Bm A
Whisper words of wisdom, let it be.

Verse 2
A E F#m D
And when the broken hearted people, Living in the world agree,
A E D C#m Bm A
There will be an answer, let it be
A E F#m D
For tho' they may be parted, There is still a chance that they will see,
A E D C#m Bm A
There will be an answer, let it be

Chorus 2
F#m E D A
Let it be, Let it be, Let it be, Let it be,
A E D C#m Bm A
There will be an answer, let it be,
F#m E D A
Let it be, Let it be, Let it be, Let it be,
A E D C#m Bm A
Whisper words of wisdom, let it be.

Verse 3
A E F#m D
And when the night is cloudy, There is still a light that shines on me,
A E D C#m Bm A
Shine until tomorrow, let it be,
A E F#m D
I wake up to the sound of music, Mother Mary comes to me,
A E D C#m Bm A
Speaking words of wisdom, let it be

Chorus 2
F#m E D A
Let it be, Let it be, Let it be, Let it be,
A E D C#m Bm A
There will be an answer, let it be,
F#m E D A
Let it be, Let it be, Let it be, Let it be,
A E D C#m Bm A
Whisper words of wisdom, let it be.

Interlude
A---8--7--5--3------------------|
E---------------6--5--3--1--0---|

A---8--7--5--3-----------3--3---|
E---------------6--5--3---------|


Solo
e------------------------------------------------------------------|
b------------------------------------------------------------------|
g------------------------------------------------------------------|
d--------------------------------------------5—7p5-----------------|
a----------3--3—7p5--3--5--5-------3h5/7-------------7p5--3--------|
e------3h5--------------------3h5----------------------------------|

e------------------------------------------------------------------|
b-----------------------------8------------------------------------|
g---------------------5--7/9-----9/7-9/7--5--7--5------------------|
d------5--5-----5--7-------------------------------7--5------------|
a---7--------7-------------------------------------------7--5--3---|
e------------------------------------------------------------------|

e-----------------------------------------------------------------|
b-----------------------------------------------8--10--8----------|
g----------------------9--7—5h7--------------9------------9--7--5-|
d---------------7--5---------------7---5--7-----------------------|
a—-------7--3-----------------------------------------------------|
e---3h5-----------------------------------------------------------|

e---------------8-------------12--10--8--------|
b------------------10p8------------------10--8-|
g--------5/9--------------9--------------------|
d—--5h7----------------------------------------|
a----------------------------------------------|
e----------------------------------------------|

e-------------------------|
b------10p8---------------|
g---9--------9\7--5h7--5--|
d-------------------------|
a-------------------------|
e-------------------------|

Outro

A---8--7--5--3-----------------|
E---------------6--5--3--1--0--|
Tunning: Standard (E A D G B e)
ok here is let it be by the beatles
altho its played on the piano for many parts it stil sounds kl on the guitar nd the solos prety gd 2
so gud luk learnin dis clasic


[Intro]

C G Am F C G F Em Dm C


[Verse I]

C G Am F
When I find myself in times of trouble, Mother Mary comes to me
C G F Em Dm C
Speaking words of wisdom, let it be
C G Am F
And in my hour of darkness, She is standing right in front of me
C G F Em Dm C
Speaking words of wisdom, Let it be


[Chorus I]

Am G F C
Let it be, let it be, let it be, let it be
C G F Em Dm C
Whisper words of wisdom, let it be


[Verse II] (hi-hat)

C G Am F
And when the broken hearted people, Living in the world agree
C G F Em Dm C
There will be an answer, let it be
C G Am F
But though they may be parted, There is still a chance that they may see
C G F Em Dm C
There will be an answer, let it be


[Chorus II] (full drums)

Am G F C
Let it be, let it be, let it be, let it be
C G F Em Dm C
Yeah, there will be an answer, let it be
Am G F C
Let it be, let it be, let it be, let it be
C G F Em Dm C
Whisper words of wisdom, let it be


[Bridge]

e|-5-3-1-0------------------|
B|-6-5-3-1-3-1-0------------|
G|---------4-2-0-2-0--------|
D|---------------3-2--------|
A|--------------------------|
E|--------------------------| x2


[Guitar Solo]

Guitar 1 (solo on the front)
e|----------------------------------------------------------|
B|----------------------------------------------------------|
G|----------------------------------------------------------|
D|----------------------------------------------5-7p5-------|
A|--------------------3-3-5b7r5-3-5-5-----3h5/7-------7\\5-3|
E|----------------3h5-----------------3h5-------------------|
| Guitar 2 (solo on the back)
e|----------------------------------------------------------|
B|----------------------------------------------------------|
G|-5----5-------------------------------------5-7b9-(9)bd-5-|
D|-7b8-(8)bd7---------------5-5---5-------5h7---------------|
A|--------------7\\5---3-3/7-----7--------------------------|
E|----------------------------------------------------------|

e|---------------------------------------------------------|
B|------------------8-8b9r8--------------------------------|
G|--------------5-7---------7b8r7-5-7p5--------------------|
D|---5-5----5-7-------------------------7-5----------------|
A|-7----------------------------------------7-5b6r5-3------|
E|---------------------------------------------------------|
| |
e|-----8--------------5------------------------------------|
B|--------------------5------------------------------------|
G|-7/9---7b9r-5h7-7b9---(9)r7---5--------------------------|
D|----------------------------------7p5-7p5----------------|
A|------------------------------------------7\\5-3h5-3-----|
E|---------------------------------------------------------|

e|---------------------------------------------------------|
B|-------------------------------------8-10p8--------------|
G|-----------------7/9-7-5h7-------7/9--------9\\7-5-------|
D|-----------5/7-5-----------7-5h7-------------------------|
A|-----5/7-3-----------------------------------------------|
E|-3/5-----------------------------------------------------|
| |
e|----------------------------------------------8-10b12----|
B|-----------------8------8-----8--10-------8h10-----------|
G|-----5-5---5-7b------7b----7b----------------------------|
D|-5/7-----7-----------------------------------------------|
A|---------------------------------------------------------|
E|---------------------------------------------------------|

e|------------------------8--------10b12r10-10-8-----------|
B|--------------------------10p8-----------------10--------|
G|------------------5h7/9--------9-------------------------|
D|--------------5h7----------------------------------------|
A|---------------------------------------------------------|
E|---------------------------------------------------------|
| |
e|-(12)r10-8h10-8------------------17b18r17----------------|
B|-------------------------------0------------------17\\15-|
G|---------------------------------------------------------|
D|---------------------------------------------------------|
A|---------------------------------------------------------|
E|---------------------------------------------------------|

e|---------------------------------------------------------|
B|--8---10p8-----------------------------------------------|
G|----9--------9\\7---5--5---------------------------------|
D|---------------------------------------------------------|
A|---------------------------------------------------------|
E|---------------------------------------------------------|
| |
e|---------------------------------------------------------|
B|----13-15-17\\15-13h15-13--------------------------------|
G|---------------------------------------------------------|
D|---------------------------------------------------------|
A|---------------------------------------------------------|
E|---------------------------------------------------------|


[Chorus III]

Am G F C
Let it be, let it be, let it be, let it be
C G F Em Dm C
Whisper words of wisdom, let it be


[Verse III]

C G
And when the night is cloudy,
Am F
There is still a light that shines on me
C G F Em Dm C
Shine on till tomorrow, let it be
C G Am F
I wake up to the sound of music, Mother Mary comes to me
C G F Em Dm C
Speaking words of wisdom, let it be


[Chorus IV]

Am G F C
Let it be, let it be, let it be, let it be
C G F Em Dm C
There will be an answer, let it be
Am G F C
Let it be, let it be, let it be, let it be
C G F Em Dm C
Whisper words of wisdom, let it be

there u go
its not very chalengin bt its a gr8 piece of songwritin and fun 2 play
peace

rocktabber



************************************

| h Hammer-on
| p Pull-off
| r Release
| b Bend
| / Slide up
| \ Slide down

************************************
Tunning: Standard (E A D G B e)
Gtr I (E A D G B E) - 'Rock Organ'
Gtr II (E A D G B E) - 'Piano'
Gtr III (E A D G B E) - 'E.Piano Chorused'
Gtr IV (E A D G B E) - 'Gtr 1 Overdrv Main'


Q=70
4/4
Gtr II
|---------|-8---8-----3-0-3---|-0---0-0-0-------|-3---3-----3-0-3----|
|---------|-8---8-----3---3---|-1---1-1-1---3---|-5---5-----3---3----|
|---------|-9---9-----4---4---|-2---2-2-2---5---|-5---5-----4---4----|
|---------|-------------------|-------------7---|--------------------|
|---------|-------------------|---0-------------|---3---3------------|
|---------|---8---8-1-3-----3-|-----------1---1-|---------1-3-----3--|


|-5---3-1-3-------|-8---8-----3-0-3---|-0---0---0-----0-|-3---3-----3-0-3---|
|-6---5-3-5-------|-8---8-----3---3---|-1---1-5-1---3---|-5---5-----3---3---|
|---------5-------|-9---9-----4---4---|-2---2---2---5---|-5---5-----4---4---|
|-----------------|-------------------|-------------7---|-------------------|
|-----------3-3-3-|-------------------|---0-------------|---3---3-----------|
|---1-------------|---8---8-1-3-----3-|-------3-1-1-----|---------1-3-----3-|


|-1---3-1-3---3---|-8---8-----3-0-3---|-0---0---0-----0-|-3---3-----3-0-3---|
|-1---5-1-5---5---|-8---8-----3---3---|-1---1-1-1---3---|-5---5-----3---3---|
|-2---5---5---5---|-9---9-----4---4---|-2---2-2-2---5---|-5---5-----4---4---|
|-----------------|-------------------|-------------7---|-------------------|
|-----------3---3-|-------------------|---0-------------|---3---3-----------|
|---1-0-----------|---8---8-1-3-----3-|---------1-1-----|---------1-3-----3-|


Gtr I
|-----------------|-20-------20-------|
|-----------------|-22-------20-------|
|-----------------|-21-------21-------|
|-----------------|-------------------|
|-----------------|-------------------|
|-----------------|-------------------|
|
| Gtr II
|-1---3---3---3---|--5---5----3---3---|
|-1---5-1-5---5---|--5---5----5---5---|
|-2---5---5---5---|--5---5----5---5---|
|-----------------|-------------------|
|-----------3-2-2-|-------------------|
|---1-0-----------|--5-5---5--3-3---3-|


|-20-------20-------|-20---------19--------|
|-22-------20-------|-20---------20--------|
|-22-------21-------|-21---------19--------|
|-------------------|----------------------|
|-------------------|----------------------|
|-------------------|----------------------|
|
|--1---1----3---3---|--3-0-3------3-0-3----|
|--1---1----5---5---|--5---5------3---3----|
|--2---2----5---5---|--5---5------4---4----|
|-------------------|----------------------|
|-------------3---3-|--3-----3-------------|
|----1---1----------|----------1--3-----3--|


|-17---15-13-15-------|-------------------|
|-18---17-15-17-------|-------------------|
|-17---17-17-17-------|-------------------|
|---------------------|-------------------|
|---------------------|-------------------|
|---------------------|-------------------|
|
|--5----3--1--3-------|-8---8-----3-0-3---|
|--6----5--1--5-------|-8---8-----3---3---|
|--5----5-----5-------|-9---9-----4---4---|
|---------------------|-------------------|
|---------------3-3-3-|-------------------|
|----1--0-------------|-8-8---8-1-3-----3-|


|-----------------|-------------------|
|-----------------|-------------------|
|-----------------|-------------------|
|-----------------|-------------------|
|-----------------|-------------------|
|-----------------|-------------------|
|
|-0---0-0-0-----0-|-3-0-3-----3-0-3-0-|
|-1---1-1-1---3---|-5---5-----3---3---|
|-2---2-2-2---5---|-5---5-----4---4---|
|-------------7---|-------------------|
|---0-------------|-3-----3-----------|
|---------1-1-----|---------1-3-------|


Gtr II
|-1---3---3---3---|-8---8-----3-0-3---|---0---0------0-|-3-0-3---3-0-3----|
|-1---5-3-5---5---|-8---8-----3---3---|-5---5------3---|-5---5---3---3----|
|-2---5-5-5---5---|-9---9-----4---4---|-5---5---5--5---|-5---5---4---4----|
|-----------------|-------------------|-7---7------7---|------------------|
|-----------3-3-3-|-------------------|-0----------3---|-3-----3----------|
|---1-0-----------|-8-8---8-1-3-----3-|----------------|---------3-----3--|


Gtr I
|----------------|-20-------19-------|
|----------------|-22-------20-------|
|----------------|-21-------19-------|
|----------------|-------------------|
|----------------|-------------------|
|----------------|-------------------|
|
| Gtr II
|-1--3-1-3---3---|--5---5----3---3---|
|-1--5---5---5---|--5---5----5---5---|
|-2--5---5---5---|--5---5----5---5---|
|----------------|-------------------|
|----------3-3-2-|-------------------|
|-1--0-----------|----5---5----3---3-|


|-20-------20-------|-20---------19--------|
|-22-------20-------|-20---------20--------|
|-22-------21-------|-21---------19--------|
|-------------------|----------------------|
|-------------------|----------------------|
|-------------------|----------------------|
|
|--1---1----3---3---|--3-0-3------3-0-3----|
|--1---1----5---5---|--5---5------3---3----|
|--2---2----5---5---|--5---5------4---4----|
|-------------------|----------------------|
|-------------3---3-|--3-----3-------------|
|--1-1---1----------|----------1--3-----3--|


|-17---15-13-15-------|-----------------|-----------------|--------------------|
|-18---17-15-17-------|-----------------|-----------------|--------------------|
|-17---17-17-17-------|-----------------|-----------------|--------------------|
|---------------------|-----------------|-----------------|--------------------|
|---------------------|-----------------|-----------------|--------------------|
|---------------------|-----------------|-----------------|--------------------|
|
|--5----3--1--3-------|-5---5---3---3---|-1---1---3---3---|-3-0-3-----3-0-3----|
|--6----5--3--5-------|-5---5---5---5---|-1---1---5---5---|-5---5-----3---3----|
|--5----5--5--5-------|-5---5---5---5---|-2---2---5---5---|-5---5-----4---4----|
|---------------------|-----------------|-----------------|--------------------|
|---------------3-3-2-|-----------------|-----------3---3-|-3-----3------------|
|----1--0-------------|---5---5---3---3-|-1-1---1---------|---------1-3-----3--|


Gtr II
|-5---3---3-------|--5--3-1-0------|
|-6---5-3-5-------|-----5--------1-|
|-5---5-5-5-------|------------3-2-|
|-----------------|----------------|
|-----------3-3-3-|----------------|
|---1-0-----------|--1--0----------|
|
| Gtr III
|-----------------|----------------|
|-----------------|-10--8-6-5--3-1-|
|-----------------|-10--9-7-5--3-2-|
|-----------------|----------------|
|-----------------|----------------|
|-----------------|----------------|


Gtr I
|----0-------|-----20----20----20--18---20---|
|-0----------|-----20----18----20--18---22---|
|------------|-----21----19----21--19---22-0-|
|-0-----5----|------------------------3------|
|-------3----|-----19----17------------------|
|------------|-13-----15----15-20--18--------|
|
|------------|-------------------------------|
|-0----------|-------------------------------|
|-0--2--0----|-------------------------------|
|----3--2----|-------------------------------|
|------------|-------------------------------|
|------------|-------------------------------|


|-15--13--20----------|-20-----------19-------------|-17---------17-------|
|-15------17----------|-20-----------20-------------|-17---------18-------|
|---------------------|-21-----------19-------------|-17---------17-------|
|---------------------|-----------------------------|---------------------|
|---------------------|-----------------------------|---------------------|
|-15--13--------------|-----------------------------|---------------------|
|
| Gtr II
|---------------------|--8---8--------3-0--3--------|--0---0-0----0-------|
|---------------------|--8---8--------3----3--------|--1---1-1----1---3---|
|---------------------|--9---9--------4----4--------|--2---2------2---5---|
|---------------------|-----------------------------|-----------------7---|
|---------------------|-----------------------------|----0----------------|
|---------------------|----8-----8-1--3---------3---|--------3------1---1-|
|
| Gtr IV
|---------------------|-----------------------------|--0------------------|
|------------1--1-----|---------------------------1-|--3-----5-3--1-------|
|------------2--0-----|--------0-0----0---(0)-0-2---|---------------------|
|------------5----2-0-|------2-----2----------------|---------------------|
|---------------------|--3-3-5----------------------|---------------------|
|---------------------|-----------------------------|---------------------|


|-20-------------19---------|-17---------------15------------|
|-20-------------20---------|-18---------------17------------|
|-21-------------19---------|-17---------------17------------|
|---------------------------|--------------------------------|
|---------------------------|--------------------------------|
|---------------------------|--------------------------------|
|
|--3-----3--------3-0-3-----|--5-------3---1----3------------|
|--5-----5--------3---3-----|--6-------5---3----5------------|
|--5-----5--------4---4-----|--5-------5---5----5------------|
|---------------------------|--------------------------------|
|----3-------3--------------|---------------------3-3---3----|
|--------------1--3-------3-|------1---0---------------------|
|
|----0-8----------0-5-------|--------------------------------|
|----3---------3--3---5-3-1-|--------------------------------|
|--------9-7-5--------------|--2-0-2-0--------------------5--|
|---------------------------|----------2-0------------5-7----|
|---------------------------|--------------3-5--3------------|
|---------------------------|--------------------------------|


|-20------------19-------------|
|-20------------20-------------|
|-21------------19-------------|
|------------------------------|
|------------------------------|
|------------------------------|
|
|--8-0---8-------3----0-3------|
|--8-----8-------3------3------|
|--9-----9-------4------4------|
|------------------------------|
|------------------------------|
|--8--------8-1--3----------3--|
|
|-----------3---(3)---3-----3--|
|--------5----------3-5---3-5--|
|--5---5-7---------------------|
|----7-------------------------|
|------------------------------|
|------------------------------|


|-17-----------17-------------|-20---------19------------|
|-17-----------18-------------|-20---------20------------|
|-17-----------17-------------|-21---------19------------|
|-----------------------------|--------------------------|
|-----------------------------|--------------------------|
|-----------------------------|--------------------------|
|
|----0----------0--------0----|--3-0-3------3--0-3-------|
|--5---5--------1---3---------|--5---5------3----3-------|
|--5---5--------2---5---------|--5---5------4----4-------|
|--7---7------------7---------|--------------------------|
|--0----------------3---------|--3-----3-----------------|
|----------3------------------|-------------3------3-----|
|
|--5-----3-5-8-12--12-10-8-10-|--8---------17-15---------|
|--------------15-------------|----------------------17--|
|-----------------------------|--------------------------|
|-----------------------------|----------9---------------|
|-----------------------------|--------------------------|
|-----------------------------|--------------------------|


|-17--------------------15-------|----------12-------|
|-18--------------------17-------|-13-------13-------|
|-17--------------------17-------|-14-------12-------|
|--------------------------------|-14----------------|
|--------------------------------|-------------------|
|--------------------------------|-------------------|
|
|--1---------3-----------3---3---|--5---5----3---3---|
|--1---------5-----3-----5---5---|--5---5----5---5---|
|--2---------5-----------5---5---|--5---5----5---5---|
|--------------------------------|-------------------|
|--------------------------3-3-2-|-------------------|
|--1-----1---0-------------------|----5---5----3---3-|
|
|--------------------------------|-------------------|
|-15-13-15--17-15-13-15-13-------|-------------------|
|--------------------------------|-------------------|
|--------------------------------|-------------------|
|--------------------------------|-------------------|
|--------------------------------|-------------------|


|-12-------8-------|-8---------10--------|
|-10-------8-------|-8---------12--------|
|-10-------9-------|-9---------12--------|
|------------------|---------------------|
|------------------|---------------------|
|------------------|---------------------|
|
|--1---1---3---3---|-3-0-3------3-0-3----|
|--1---1---5---5---|-5---5------3---3----|
|--2---2---5---5---|-5---5------4---4----|
|------------------|---------------------|
|------------3---3-|-3-----3-------------|
|----1---1---------|---------1--3-----3--|
|
|------------------|---------------------|
|------------------|---------------------|
|------------------|---------------------|
|------------------|---------------------|
|------------------|---------------------|
|------------------|---------------------|


|-------------------|-8---------7-------|
|-10--------8-------|-8---------8-------|
|-10--------9-------|-9---------7-------|
|-10-------10-------|-------------------|
|-------------------|-------------------|
|-------------------|-------------------|
|
|--5---3-1--3-------|-8---8-----3-0-3---|
|--6---5-3--5-------|-8---8-----3---3---|
|--5---5----5-------|-9---9-----4---4---|
|-------------------|-------------------|
|-------------3-3-3-|-------------------|
|----1-0------------|-8-8---8-1-3-----3-|


|--8-------13-------|-12---------10-------|
|-10-------13-------|-13---------12-------|
|--9-------14-------|-12---------12-------|
|-------------------|---------------------|
|-------------------|---------------------|
|-------------------|---------------------|
|
|--0---0----0-----0-|--3-0-3------3-0-3---|
|--1---1----1---3---|--5---5------3---3---|
|--2---2----2---5---|--5---5------4---4---|
|---------------7---|---------------------|
|----0--------------|--3-----3------------|
|--------3--1-1-----|----------1--3-----3-|


|-13---12-10-12------------------|-12---------10-------|
|-13---------13------------------|-13---------12-------|
|-14---------12------------------|-12---------12-------|
|--------------------------------|---------------------|
|--------------------------------|---------------------|
|--------------------------------|---------------------|
|
|--1----3--1--3--------3---------|--8---8------3-0-3---|
|--1----5--3--5--------5---------|--8---8------3---3---|
|--2----5-----5--------5---------|--9---9------4---4---|
|--------------------------------|---------------------|
|-------------------3--3----3----|---------------------|
|----1--0------------------------|--8-8---8-1--3-----3-|
|
| Gtr IV
|--------------------------------|---------------------|
|--------------------------------|---------------------|
|--------------------------------|---------------------|
|--------------------------------|---------------------|
|------------15----15------------|---------------------|
|------------15-17-15-12-10-8-10-|--8------------------|


|-12-------13------|-12-------10-------|
|-13-------13------|-13-------12-------|
|-14-------14------|-12-------12-------|
|------------------|-------------------|
|------------------|-------------------|
|------------------|-------------------|
|
|----0---0--0----0-|--3-0-3----3-0-3---|
|--5---5-1-----3---|--5---5----3---3---|
|--5---5-2-----5---|--5---5----4---4---|
|--7---7-------7---|-------------------|
|--0-----------3---|--3-----3----------|
|--------3---------|-----------3-----3-|
|
|------------------|-------------------|
|------------------|-------------------|
|------------------|-------------------|
|------------------|-------------------|
|------------------|-------------------|
|------------------|-------------------|


|--8------8-------|-20-------19-------|
|-10------8-------|-22-------20-------|
|-10------9-------|-21-------19-------|
|-----------------|-------------------|
|-----------------|-------------------|
|-----------------|-------------------|
|
|--1--3-0-3---3---|--5---5----3---3---|
|--1--5---5---5---|--5---5----5---5---|
|--2--5---5---5---|--5---5----5---5---|
|-----------------|-------------------|
|-----------3-3-2-|-------------------|
|--1--0-----------|--5-5---5--3-3---3-|


|-20-------20-------|-20---------19--------|
|-22-------20-------|-20---------20--------|
|-22-------21-------|-21---------19--------|
|-------------------|----------------------|
|-------------------|----------------------|
|-------------------|----------------------|
|
|--1---1----3---3---|--3-0-3------3-0-3----|
|--1---1----5---5---|--5---5------3---3----|
|--2---2----5---5---|--5---5------4---4----|
|-------------------|----------------------|
|-------------3---3-|--3-----3-------------|
|--1-1---1----------|----------1--3-----3--|


Gtr IV
|-17---15-13-15-------|---------------------------------|
|-18---17-15-17-------|---------------------------------|
|-17---17-17-17-------|---------------------------------|
|---------------------|---------10-10-10-------10-------|
|---------------------|---------12-10----12-10-10-------|
|---------------------|---------------------------12-10-|
|
|--5----3--1--3-------|-5---5-------3--------3----------|
|--6----5--1--5-------|-5---5-------5--------5----------|
|--5----5-----5-------|-5---5-------5--------5----------|
|---------------------|---------------------------------|
|---------------3-3-2-|---------------------------------|
|----1--0-------------|---5---5-----3-----3--------3----|


|---------------------------------|
|---------------------------------|
|---------------------------------|
|--------10-----------------------|
|--------10-12--------------------|
|-12-----------12-10-8-10-8-10-8--|
|
|--1---1--------3---------3-------|
|--1---1--------5---------5-------|
|--2---2--------5---------5-------|
|---------------------------------|
|--------------------3-------3----|
|----1----1-----------------------|


Gtr II
|-3-0-3-----3--0--3-----|-5--3-----3---3-------|-5-----5-----3-------3--------|
|-5---5-----3-----3-----|-6--5---3-5---5-------|-5-----5-----5-------5--------|
|-5---5-----4-----4-----|-5--5-----5---5-------|-5-----5-----5-------5--------|
|-----------------------|----------------------|------------------------------|
|-3-----3---------------|------------3-3---2---|------------------------------|
|---------1-3---------3-|----0-----------------|-----5-----5-----3-------3----|
|
| Gtr IV
|-----------------------|----------------------|-----------------------5------|
|---------------------3-|-1--1---1-1-----1---1-|-----1-----1-----1-3-5---5-3--|
|--------------9--7-5---|----0-2---------0-2---|-0-2---0-2---0-2--------------|
|-------------12--------|----------------------|------------------------------|
|-----------------------|----------------------|------------------------------|
|-----------------------|----------------------|------------------------------|


|-1----1-------3---3------|--3-0-3--------3-0---3-------|-5---3------3-------|
|-1----1-------5---5------|--5---5--------3-----3-------|-6---5---1--5-------|
|-2----2-------5---5------|--5---5--------4-----4-------|-5---5------5-------|
|-------------------------|-----------------------------|--------------------|
|----------------3----3---|--3--------3-----------------|--------------3-3-3-|
|-1-1------1--------------|-------------1-3---------3---|---1-0--------------|
|
|------0-3---3-3-----10-8-|-----------------------------|--------------------|
|-1-3--3------------------|-10---8-10-----8---------3-5-|--------------------|
|-------------------------|-----------------9-7---5-----|-5-------5--5-------|
|-------------------------|-----------------------------|-----5-7------------|
|-------------------------|-----------------------------|--------------------|
|-------------------------|-----------------------------|--------------------|


Q=52
|-5--3-0-0------|-------0----|--0-----*|
|----5--------1-|------------|--------*|
|-----------3---|----2-------|--------*|
|---------------|-0--3-------|--------*|
|---------------|------------|--------*|
|-1--0----------|------------|--------*|
|
| Gtr III
|-5--3-1-0------|------------|--------*|
|-6--5-3-1--3-1-|-0----------|--------*|
|-----------3-2-|-0--2--0----|-(0)----*|
|---------------|----3--2----|-(2)----*|
|---------------|------------|--------*|
|---------------|------------|--------*|




--------------------------------------------------------------------------------


Tablature Legend
----------------
h - hammer-on
p - pull-off
b - bend
pb - pre-bend
r - bend release (if no number after the r, then release immediately)
/\ - slide into or out of (from/to "nowhere")
s - legato slide
S - shift slide
- natural harmonic
[n] - artificial harmonic
n(n) - tapped harmonic
~ - vibrato
tr - trill
T - tap
TP - trem. picking
PM - palm muting
\n/ - tremolo bar dip; n = amount to dip
\n - tremolo bar down
n/ - tremolo bar up
/n\ - tremolo bar inverted dip
= - hold bend; also acts as connecting device for hammers/pulls
- volume swell (louder/softer)
x - on rhythm slash represents muted slash
o - on rhythm slash represents single note slash

Misc Legend
-----------
| - bar
|| - double bar
||o - repeat start
o|| - repeat end
*| - double bar (ending)
: - bar (freetime)
$ - Segno
& - Coda
Tempo markers - = BPM(8/16=s8/s16), where s8 = swing 8ths, s16 = swing 16ths


Tunning: Standard (E A D G B e)
Let It Be guitar TABS BY THE Beatles
Intro:
:RIFF 1
C G Am Fmaj7 F6
e|0------ 0------ 3------ 3------|0------ 0---0-- 0------ -------|
B|1-------1-------3-------3------|1-------1---1---1-------3------|
G|0-------0-------0-------0------|2-------2---2---2-------2------|
D|-------------------------------|------------------------3------|
A|3---3-------3------------------|0---0--------------------------|
E|--------------2/3---3-------3--|------------3---1---1-------1--|

:RIFF 2
C G F C
e|0------ 0------ 3------ 3------|5------ 3---1-- 0------ -------|
B|1-------1-------3-------3------|6-------5---3---1--------------|
G|0-------0-------0-------0------|----------------0--------------|
D|-------------------------------|3------------------------------|
A|3---3-------3------------------|----------------3---3---3---3--|
E|--------------2/3----3------3--|-------------------------------|
When i
VERSE: RIFF 1 RIFF 2 RIFF1 RIFF2

00:39
Am Am7 Fmaj7 C :RIFF 3
e|0------ 0------ 0------ 0------|0------ 0------ 0------ 0------|
B|1-------1-------1-------1------|1-------1-------1-------1------|
G|2-------2-------2-------2------|2-------2-------0-------0------|
D|-------------------------------|-------------------------------|
A|0-----------0------------------|----------------3---3---3---3--|
E|----------------3---3---3---3--|1-------1----------------------|
let be let be let be
it it it

C G F C :RIFF 4
e|0------ 0------ 3------ 3------|------- ------- 0---0-- 0---0--|
B|1-------1-------3-------3------|----------------1---1---1---1--|
G|0-------0-------0-------0------|2-------0-------0---0---0---0--|
D|-------------------------------|3-------2---3------------------|
A|3---3-------3------------------|------------5---3---3---3---3--|
E|--------------2/3---3-------3--|1---1--------------------------|
Whisper of let be And
words wisdom it


00:52
RIFF 1
when broken people living the agree
the hearted in world

RIFF4
There will an let be For
be answer it

01:05

RIFF1
though be there still that will
they parted is a chance they see
may

xxx x X X x
RIFF4
There will an let be Let be
be answer it it



01:19
Am Am/G F C :RIFF5
e|0------ 0------ 0------ 0------|0------ 0------ 0------ 0------|
B|1-------1-------1-------1------|1-------1-------1-------1------|
G|2-------2-------2-------2------|2-------2-------0-------0------|
D|-------------------------------|-------------------------------|
A|0---0-------0------------------|----------------3---3-------3--|
E|----------------3---3-------3--|1---1-------1------------------|
let be let be let be Yeah
it it it

RIFF3
there be answer let be Let be
will an it it

01:32
RIFF5
let be let be let be
it it it

RIFF4
whisper of let be
words wisdom it
F C Bb F G F C :RIFF 6
e|5------ ------- ------- -------|------- ------- ------- -------|
B|6-------8---6---5-------3---1--|0-------1-------1--------------|
G|5-------5---5---5-------3---2--|0-------2-------0--------------|
D|----------------5-------3---3--|0-------3-------2--------------|
A|-------------------------------|----------------3-------3------|
E|-------------------------------|3---3---1---1------------------|

e|------- ------- ------- -------|------- ------- ------- -------|
B|-------------------------------|-------------------------------|
G|2-------0---0------------------|-------------------------------|
D|3-------2---0---2-------0------|-------------------------------|
A|----------------3-------1---3--|2-------3-------3--------------|
E|----------------------------5--|3-------1-------0--------------|

e|5------ 3---3-- ------- -------|----- ------- ----3-3 3-3----|
B|6-------5---3---5-------3---1--|0-----1-------1---5-5\3-1----|
G|5-------5---4---5-------3---2--|0-----2-------0-----------2--|
D|----------5---5-5---------3---0|0-----3-------2--------------|
A|-------------------------------|--------------3--------------|
E|-------------------------------|3-----1-------0--------------3H5

SOLO
02:00

e|0---0-- 0---0-- 3---3-- 3---3--|0---0-- 0---0-- 0---0-- -------|
B|1---1---1---1---3---3---3---3--|1---1---1---1---1---1---3---3--|
G|0---0---0---0---0---0---0---0--|2---2---2---2---2---2---2---2--|
D|-------------------------------|------------------------3---3--|
A|3-------3----------------------|0-------0----------------------|
E|----------------3-------3------|----------------3-------1------|

e|------- ------- ------- -------|------- ------- ------- -------|
B|-------------------------------|---------------------------------|
G|-------------------------------|---------------------------------|
D|---------BR--------------------|----5---7P5----------------------|
A|3---3---575-3---5---5-------3H5/7-----------7\5-3-------------5--|
E|------------------------3H5----|---------------------------------|

e|0---0-- 0---0-- 3---3-- 3---3--|------- ------- ----0-0 --0-0--|
B|1---1---1---1---3---3---3---3--|1---1---1---0---1---1-1---1-1--|
G|0---0---0---0---0---0---0---0--|2-------0---0---0---0-0---0-0--|
D|-------------------------------|3-------2---0---2--------------|
A|3-------3----------------------|----------------3---3---3---3--|
E|----------------3-------3------|-------------------------------|

e|------- ------- ------- -------|------- ------- ------- -------|
B|------------------8-10P8-------|---------------------------------|
G|--------------5-79------9\7-5--|7P5------------------------------|
D|--5-5---5---7----/-------------|----7-5--------------------------|
A|7-----7------------------------|----------7\5---3-------------5--|
E|-------------------------------|----------------------------35---|
P

e|0---0-- 0---0-- 3---3-- 3---3--|0---0-0 ----0-- 0------ -------|
B|1---1---1---1---3---3---3---3--|1---1-1-----1---1-------3------|
G|0---0---0---0---0---0---0---0--|2---2-2-----2---2-------2------|
D|-------------------------------|------------------------3------|
A|3-------3----------------------|0-------0----------------------|
E|----------------3-------3------|------------3---1-------1------|

e|------- ------- ------- -------|------- ------- ------- -------|
B|-------------------------------|----8---10P8------------------5--|
G|--------------7/9--7-5H7------7/9-----------9\7-5-----------57---|
D|------5/7---5-----------7--5H7-|-----------------------------H---|
A|7---3--------------------------|---------------------------------|
E|-------------------------------|---------------------------------|

e|0------ 0------ 3------ 3------|------- ------- ------- -------|
B|1-------1-------3-------3------|1---1---1---0---1-------0------|
G|0-------0-------0-------0------|2---2---0---0---0-------0------|
D|-------------------------------|3---3---2---0---2-------2------|
A|3-------3----------------------|----------------3-------2------|
E|----------------3-------3------|-------------------------------|

e|----8-- ------- 101210- 8-----8|------- ------- ------- -------|
B|--------10P8------B--------10-8|----10\8-----------------------|
G|9-----------9------------------|---9----9\7-5---5--------------|
D|-------------------------------|-------------------------------|
A|-------------------------------|-------------------------------|
E|-------------------------------|-------------------------------|
Let be
it
02:27

e|0------ 0------ 0------ 0------|0------ 0------ 0------ 0------|
B|1-------1-------1-------1------|1-------1-------1-------1------|
G|2-------2-------2-------2------|2-------2-------0-------0------|
D|-------------------------------|-------------------------------|
A|0-----------0------------------|----------------3-------3------|
E|----------------3---3---3---3--|1-------1----------------------|
let be let be eh let be
it it it

e|0------ 0------ 3------ 3------|------- ------- ------- -------|
B|1-------1-------3-------3------|-------------------------------|
G|0-------0-------0-------0------|2-------0----------------------|
D|-------------------------------|3-------2---3------------------|
A|3-------3----------------------|------------5------------------|
E|--------------2/3-------3------|1------------------------------|
Whisper of let be Eeeeeeeeeee And
words wisdom it

02:41

e|0------ 0---0-- 3------ 3------|0------ 0---0-- 0------ -------|
B|1-------1---1---3-------3------|1-------1---1---1-------3------|
G|0-------0---0---0-------0------|2-------2---2---2-------2------|
D|-------------------------------|------------------------3------|
A|3-------3----------------------|0---0---0----------------------|
E|----------------3-------3------|------------3---1-------1---1--|
when night is there still that on
the cloudy is a light shines me
e|0------ 0------ 3------ 3------|------- ------- 0------ 0------|
B|1-------1-------3-------3------|1---------------1-------1------|
G|0-------0-------0-------0------|2-------0-------0-------0------|
D|-------------------------------|3-------2---3------------------|
A|3---3-------3------------------|------------5---3-------3------|
E|--------------2/3-------3------|1------------------------------|

e|------- ------- ------- -------|------- ------- ------- -------|
B|-------------------------------|-------------------------------|
G|-------------------------------|----------------5---5----------|
D|-------------------------------|----------------5H7-5----------|
A|-------------------------------|------------------------7\5-3H5|
E|-------------------------------|-------------------------------|
shine tomorrow let be I
until it

02:55
e|0------ 0------ 3------ 3------|1------ 0---0-- 0------ -------|
B|1-------1-------3-------3------|1-------1---1---1-------3------|
G|0-------0-------0-------0------|2-------2---2---2-------2------|
D|-------------------------------|------------------------3------|
A|3---3-------3------------------|0-------0----------------------|
E|--------------2/3-------3------|------------3---1-------1---1--|

e|------- ------- ------- -------|------- ------- ------- -------|
B|-------------------------------|-------------------------------|
G|-------------------------------|-------------------------------|
D|-------------------------------|-------------------------------|
A|3------------------------------|-------------------------------|
E|-------------------------------|-------------------------------|
wake to the of mother comes me
up sound music Mary to

e|0------ 0------ 3------ 3------|------- ------- 0------ 0------|
B|1-------1-------3-------3------|1---------------1-------1------|
G|0-------0-------0-------0------|2-------0-------0-------0------|
D|-------------------------------|3-------2---3---2--------------|
A|3---3--------------------------|------------5---3---3---3---2--|
E|------------0---3-------3------|1---1--------------------------|
speaking of Let be Eeeeeee ah Let be
words wisdom it it

03:09

e|0------ 0------ 0------ 0------|0------ 0------ 0---0-0 --0-0--|
B|1-------1-------1-------1------|1-------1-------1---1-1---1-1--|
G|2-------2-------2-------2------|2-------2-------0---0-0---0-0--|
D|-------------------------------|-------------------------------|
A|0---0-------0------------------|----------------3-------3------|
E|----------------3---3-------3--|1-------1----------------------|
let be let be eh let be Oh
it it it

e|0------ 0------ 3------ 3------|------- ------- 0---0-0 0---0--|
B|1-------1-------3-------3------|----------------1---1-1-1---1--|
G|0-------0-------0-------0------|2-------0-------0---0-0-0---0--|
D|-------------------------------|3-------2---3------------------|
A|3---3-------3------------------|------------5---3-------3------|
E|----------------3---3-------3--|1---1--------------------------|

e|------- ------- ------- -------|------- ------- ------- -------|
B|-------------------------------|-------------------------------|
G|--------------------7B9-7P5-7--|5-----------5---5-------------5|
D|-------------------------------|--------5H7----------------5H7-|
A|-------------------------------|-------------------------------|
E|-------------------------------|----------------------------3H5|
there be answer let be. Eeeeeee Let be
will an it it
03:23

e|0------ 0------ 0------ 0------|0------ 0------ 0---0-- 0---0--|
B|1-------1-------1-------1------|1-------1-------1---1---1---1--|
G|2-------2-------2-------2------|2-------2-------0---0---0---0--|
D|-------------------------------|-------------------------------|
A|0---0-------0------------------|----------------3-------3------|
E|----------------3---3-------3--|1---1-------1------------------|

e|------- ------- ------- -------|------- ------- ------- -------|
B|-------------------------------|----------8-8---8----------1513|
G|----5-------5------------------|5-------79----9-----------B--R-|
D/7-------5H7--------------------|---------/---------------------|
A|----------------7\5-3-5-3------|-------------------------------|
E|-------------------------------|-------------------------------|
let be let be eh let be
it it it

e|0------ 0------ 3------ 3------|------- ------- 0---0-0 0-0-0--|
B|1-------1-------3-------3------|----------------1---1-1-1-1-1--|
G|0-------0-------0-------0------|2-------0-------0---0-0-0-0-0--|
D|-------------------------------|3-------2---3------------------|
A|3---3---3---3------------------|------------5---3-------3------|
E|----------------3---3---3---3--|1------------------------------|

e|------- ------- ------- -------|------- ------- ------- -------|
B|-------------------------------|-------------------------------|
G|14--------------12-------------|-------------------------------|
D|-------------------1412--101214|10----------10--10-------------|
A|---------------------\-------/-|--------1012-------------------|
E|-------------------------------|----------H--------------------|
Whisper of let be Eeeeeeeeeeeeeeeee
words wisdom it

(.
e|5------ 3---1-- ------- -------|------- ------- ------- -------|
B|6-------5---1---5-------3---1--|0-------1-------1--------------|
G|5-------0---0---5-------3---2--|0-------2-------0--------------|
D|----------------5-------3---3--|0-------3-------2--------------|
A|-------------------------------|----------------3--------------|
E|-------------------------------|3-------1-------0--------------|

e|------- ------- ------- -------|------- ------- ------- -------|
B|-------------------------------|-------------------------------|
G|2-------0---0------------------|-------------------------------|
D|3-------2---0---2-------0------|-------------------------------|
A|----------------3-------1---3--|2-------3-------3--------------|
E|----------------------------5--|3-------1-------0--------------|


B Bend
R Release
/ Slide up
\ Slide down
H Hammer-on
P Pull-off
~ Vibrato
+ Harmonic
x Mute note
. Play note like a dot in standard notation
^ Ties two notes together
(. Pause
EDIT BY EVYATAR WEISS
Tunning: Standard (E A D G B e)
LET IT BE

As recorded by The Beatles
(From the 1970 Album LET IT BE)

Words and Music by John Lennon & Paul McCartney

Transcribed by Slowhand


Gtr I (E A D G B E) - 'George Harrison - Electric Guitar'
Gtr II (E A D G B E) - 'Paul McCartney - El. Piano arr. for Gtr.'


Intro, Verses 1-3, Choruses
Ballad Q=80
4/4
Gtr I
Wx35
|---------|
|---------|
|---------|
|---------|
|---------|
|---------|


Guitar Solo
C G
H E a E S S E E E a S S S S Q +S S S S
|------------------||----------------------------|
|------------------||----------------------------|
|--------5-5-5-----||--------------------------5-|
|--------5h7-5-----||---------5-5---5--(5)-5h7---|
|--------------7-5-||-3-3-5s7-----7--------------|
|------------------||----------------------------|


Am Fmaj7F6 C G
Q. S +S Q. E E a S S S S S S E E S +S E
|-------------------------|-------8--------------5-----------|
|-------------------------|----------------------------------|
|-7b9---7pb9r(7)p5----(7)-|---7s9---9s7-5h7-7b9====7r(7)-5---|
|-------------------------|----------------------------------|
|-------------------------|----------------------------------|
|-------------------------|----------------------------------|


F C G
S S S S S S S S Q S S S S E S S a S +S E +S T T E +S T T E
|----------------------------|-------------------------------------|
|----------------------------|---------------8-(8)-----8-(8)-----8-|
|--------------------------5-|-5---5-7s9-(9)-------7s9-------7s9---|
|-7p5-7p5--------------5h7---|---7---------------------------------|
|---------7s5-3h5-3----------|-------------------------------------|
|----------------------------|-------------------------------------|


Am Fmaj7 F6 C G
Q S S S S Q S +S S S Q. S S E +E E. S
|------------8-10b12--10pb12r(10)-8h10-|-8----------15pb17r(15)-----------|
|-10----8h10---------------------------|--------(0)----------------15pb17r|
|--------------------------------------|----------------------------------|
|--------------------------------------|----------------------------------|
|--------------------------------------|----------------------------------|
|--------------------------------------|----------------------------------|


F C
+S S S S S +S S S Q. E
|----------------------------------------||
|-(15)p13-15---15pb17r(15)-13h15-13------||
|----------------------------------------||
|----------------------------------------||
|----------------------------------------||
|----------------------------------------||


Chorus
Wx4
|--------||
|--------||
|--------||
|--------||
|--------||
|--------||


4th Verse
F C
W W W H a E E S S S S
|----------|----------|----------|-----------------------|
|----------|----------|----------|-----------------------|
|----------|----------|----------|--------5-5------------|
|----------|----------|----------|------5h7-5------3-----|
|----------|----------|----------|------------7s5-(3)h5--|
|----------|----------|----------|-----------------------|


C G
H H W W W
|-----------|----------|----------|------||
|-----------|----------|----------|------||
|-----------|----------|----------|------||
|-----------|----------|----------|------||
|-3---------|----------|----------|------||
|-----------|----------|----------|------||


Chorus
Wx4
|--------||
|--------||
|--------||
|--------||
|--------||
|--------||


Out-Chorus
Am G6 F C G
Q E S S S S E E S S Q. S S S S S S E S S +H E E S S E
|----------------------|------------------------|---------------------|
|----------------------|------------------------|---------------------|
|--------5---5---5-----|------5-----------------|----------7b9-7p5-7--|
|--------5h7---7-5-----|------5h7---------------|---------------------|
|------------------7s5s|=7--------7s5-3h5-3-5p3-|-(3)-----------------|
|----------------------|------------------------|---------------------|


F C Am G6
Q S S E Q S S S S S S E S S E S S S S +S S S +S
|---------------------|----------------------------5-------|
|---------------------|------------------------------------|
|-5--5---5-5----5---5-|-----5-----5-----5-7b9==(7)---7r(7)-|
|----5h7--------5h7---|-5h7---5h7---5h7--------------------|
|---------------------|------------------------------------|
|---------------------|------------------------------------|


Fmaj7 C
E S S a S E S Q E S +S
|--------------------8pb10r(8)-|
|-----------8-8-8--------------|
|-5-7---7s9--------------------|
|------------------------------|
|------------------------------|
|------------------------------|


G F C
Q S E. E S S S S S +S Q S S S S Q. E
|-------------------------------|-------------------||
|-10--8h10--8-------------------|-------------------||
|-------------9s7---5-7b9==(7)r-|-5------5---5------||
|-------------------------------|----5h7------------||
|-------------------------------|-------------------||
|-------------------------------|-------------------||


Outro
F C G F C
Gtr II
Q E E Q E E Q Q H
|---------------|------------*|
|---------------|------------*|
|-2--0-0--------|------------*|
|-3--2-2-2--0---|------------*|
|--------3--1-3-|------------*|
|-------------3-|-3--1--0----*|


Duration Legend
---------------
W - whole; H - half; Q - quarter; E - 8th; S - 16th; T - 32nd; X - 64th; a - acciaccatura
+ - note tied to previous; . - note dotted; .. - note double dotted
Uncapitalized letters represent notes that are staccato (1/2 duration)
Irregular groupings are notated above the duration line
Duration letters will always appear directly above the note/fret number it represents the
duration for. Duration letters with no fret number below them represent rests. Multi-
bar rests are notated in the form Wxn, where n is the number of bars to rest for. Low
melody durations appear below the staff

Tablature Legend
----------------
h - hammer-on
p - pull-off
b - bend
pb - pre-bend
r - bend release (if no number after the r, then release immediately)
/\ - slide into or out of (from/to "nowhere")
s - legato slide
S - shift slide
- natural harmonic
[n] - artificial harmonic
n(n) - tapped harmonic
~ - vibrato
tr - trill
T - tap
TP - trem. picking
PM - palm muting
\n/ - tremolo bar dip; n = amount to dip
\n - tremolo bar down
n/ - tremolo bar up
/n\ - tremolo bar inverted dip
= - hold bend; also acts as connecting device for hammers/pulls
<> - volume swell (louder/softer)
x - on rhythm slash represents muted slash
o - on rhythm slash represents single note slash

Misc Legend
-----------
| - bar
|| - double bar
||o - repeat start
o|| - repeat end
*| - double bar (ending)
: - bar (freetime)
$ - Segno
& - Coda
Tempo markers - = BPM(8/16=s8/s16), where s8 = swing 8ths, s16 = swing 16ths

Song info
Let It Be
The Beatles
2001
  • Rock
  • Dialogue
  • Pop Rock
Alternative tracks
Similar songs
Im On Fire - Bruce Springsteen
Believe Again - Delta Goodrem
Jesus is Just Alright - Doobie Brothers
25 Or 6 To 4 - Chicago
Watching The Wheels - John Lennon

Hi! Hope you enjoy backing track experience.
If you want to help us in the development of the project, feel free to donate!