Ticket To Ride - The Beatles
00:00 / 00:00
Tabs and lyrics
Tunning: Standard (E A D G B e)
Ticket to Ride
Beatles

During the intro and the verse he plays this:
e|------0-----------0---|
B|---------2-----0------|
G|-2----------2---------|
D|----------------------|
A|----------------------|
E|----------------------|

When he says "Away" from the line "Goin' away, yea" you strum this
e|---2----2-2---2--2---0----0-0---0--0-----|
B|---3----3-3---3--3---0----0-0---0--0-----|
G|---4----4-4---4--4---1----1-1---1--1-----|
D|---4----4-4---4--4---2----2-2---2--2-----|
A|---2----2-2---2--2---2----2-2---2--2-----|
E|---------------------0----0-0---0--0-----|

[Chorus]
"She's got a ticket to ride, She's got a ticket to ri-i-i-de
e|---2---------------------2-----------2---------------------2--------|
B|---2---------------------3-----------2---------------------2--------|
G|---2---------------------2-----------2---------------------2--------|
D|---4---------------------0-----------4---------------------0--------|
A|---4---------------------------------4------------------------------|
E|---2---------------------------------2------------------------------|

"She's got a ticket to ride, and she don't care
e|----2---------------------0--------|
B|----2---------------------0--------| On "Care" go back to the main
G|----2---------------------1--------| riff
D|----4---------------------2--------|
A|----4---------------------2--------|
E|----2---------------------0--------|

On the bridge it's just D7 and E

"Don't know why......High................"
e|--2-------------------0----------|
B|--1-------------------0----------|
G|--2-------------------1----------|
D|--0-------------------2----------|
A|----------------------2----------|
E|----------------------0----------|

riff at the end of the bridge:

e|-------------------10------12b---10--12-----|
B|--10b-------10s12------12-------------------|
G|------12--9---------------------------------|
D|--------------------------------------------|
A|--------------------------------------------|
E|--------------------------------------------|

************************************

| b Bend
| s Slide

************************************
Tunning: Standard (E A D G B e)
-----------------------------------------------------------
THE BEATLES - TICKET TO RIDE (Lennon/McCartney) From HELP
album. Released on August 6th 1965.
-----------------------------------------------------------
Tabbed by:PJVillanueva

Lyrics

I think I'm gonna be sad,
I think it's today, yeah.
The girl that's driving me mad
Is going away.

She's got a ticket to ride,
She's got a ticket to ride,
She's got a ticket to ride,
But she don't care.

She said that living with me
Was bringing her down yeah.
For she would never be free
When I was around.

She's got a ticket to ride,
She's got a ticket to ride,
She's got a ticket to ride,
But she don't care.

I don't know why she's ridin' so high,
She ought to think twice,
She ought to do right by me.
Before she gets to saying goodbye,
She ought to think twice,
She ought to do right by me.

I think I'm gonna be sad,
I think it's today yeah.
The girl that's driving me mad
Is going away, yeah.

She's got a ticket to ride,
She's got a ticket to ride,
She's got a ticket to ride,
But she don't care.

I don't know why she's ridin' so high,
She ought to think twice,
She ought to do right by me.
Before she gets to saying goodbye,
She ought to think twice,
She ought to do right by me

She said that living with me,
Is bringing her down, yeah.
For she would never be free
When I was around.

Ah, she's got a ticket to ride,
She's got a ticket to ride,
She's got a ticket to ride,
But she don't care.

My baby don't care, my baby don't care.
My baby don't care, my baby don't care.
My baby don't care, my baby don't care.


A
e|--------0-------------------0--|--------0-------------------0--|
B|------------2---------0--------|------------2---------0--------|
G|2---------------2--------------|2---------------2--------------|
D|-------------------------------|-------------------------------|
A|-------------------------------|-------------------------------|
E|-------------------------------|-------------------------------|

e|--------0-------------------0--|--------0-------------------0--|
B|------------2---------0--------|------------2---------0--------|
G|2---------------2--------------|2---------------2--------------|
D|-------------------------------|-------------------------------|
A|-------------------------------|-------------------------------|
E|-------------------------------|-------------------------------|
I
e|-------------------------------|-------------------------------|
B|-------------------------------|-------------------------------|
G|-------------------------------|-------------------------------|
D|-------------------------------|-------------------------------|
A|0-----------0------------------|0-----------0------------------|
E|-------------------------------|-------------------------------|



e|--------0-------------------0--|--------0-------------------0--|
B|------------2---------0--------|------------2---------0--------|
G|2---------------2--------------|2---------------2--------------|
D|-------------------------------|-------------------------------|
A|-------------------------------|-------------------------------|
E|-------------------------------|-------------------------------|
think I'm gonna be sad I think it's today,
e|-------------------------------|-------------------------------|
B|-------------------------------|-------------------------------|
G|-------------------------------|-------------------------------|
D|-------------------------------|-------------------------------|
A|0-----------0------------------|0-----------0------------------|
E|-------------------------------|-------------------------------|



e|--------0-------------------0--|--------0-------------------0--|
B|------------2---------0--------|------------2---------0--------|
G|2---------------2--------------|2---------------2--------------|
D|-------------------------------|-------------------------------|
A|-------------------------------|-------------------------------|
E|-------------------------------|-------------------------------|
yeah The
e|-------------------------------|-------------------------------|
B|-------------------------------|-------------------------------|
G|-------------------------------|-------------------------------|
D|-------------------------------|-------------------------------|
A|0-----------0------------------|0-----------0------------------|
E|-------------------------------|-------------------------------|



e|--------0-------------------0--|--------0-------------------0--|
B|------------2---------0--------|------------2---------0--------|
G|2---------------2--------------|2---------------2--------------|
D|-------------------------------|-------------------------------|
A|-------------------------------|-------------------------------|
E|-------------------------------|-------------------------------|
girl that's driving me mad is going away
e|-------------------------------|-------------------------------|
B|-------------------------------|-------------------------------|
G|-------------------------------|-------------------------------|
D|-------------------------------|-------------------------------|
A|0-----------0------------------|0-----------0------------------|
E|-------------------------------|-------------------------------|


Bm E
e|--------2-------0--------------|-------------------------------|
B|----------------------------3--|--------0-------------------0--|
G|----------------------4--------|------------1---------1--------|
D|-------------------------------|2---------------2--------------|
A|2------------------------------|-------------------------------|
E|-------------------------------|-------------------------------|

e|-------------------------------|-------------------------------|
B|-------------------------------|-------------------------------|
G|-------------------------------|-------------------------------|
D|-------------------------------|-------------------------------|
A|2---------------2--------------|-------------------------------|
E|-------------------------------|0-----------0------------------|


F#m D
e|2-------2-------------2-----2--|2-------2-----------2----------|
B|2-------2-------------2-----2--|3-------3---------------3------|
G|2-------2-------------2-----2--|2-------2-------------------2--|
D|4-------4-------------4-----4--|0-------0----------------------|
A|4-------4-------------4-----4--|-------------------------------|
E|2-------2-------------2-----2--|-------------------------------|
She's got a ticket to ride
e|-------------------------------|-------------------------------|
B|-------------------------------|-------------------------------|
G|-------------------------------|-------------------------------|
D|-------------------------------|-------------------------------|
A|-------------------------------|-------------------------------|
E|-------------------------------|-------------------------------|


F#m Gflat5maj7
e|2-------2-------------2-----2--|2------------------------------|
B|2-------2-------------2-----2--|2------------------------------|
G|2-------2-------------2-----2--|4------------------------------|
D|4-------4-------------4-----4--|5------------------------------|
A|4-------4-------------4-----4--|5------------------------------|
E|2-------2-------------2-----2--|3------------------------------|
She's got a ticket to ride


F#m E
e|2------ 2------ 2-----2 ----0--|0-------0-------0---0---0------|
B|2-------2-------2-----2-----0--|0-------0-------0---0---0------|
G|2-------2-------2-----2-----1--|1-------1-------1---1---1------|
D|4-------4-------4-----4-----2--|2-------2-------2---2---2------|
A|4-------4-------4-----4-----2--|2-------2-------2---2---2------|
E|2-------2-------2-----2-----0--|0-------0-------0---0---0------|
She's got a ticket to ride but she don't care
e|-------------------------------|-------------------------------|
B|-------------------------------|-------------------------------|
G|-------------------------------|-------------------------------|
D|-------------------------------|-------------------------------|
A|-------------------------------|-------------------------------|
E|-------------------------------|-------------------------------|


A
e|--------0-------------------0--|--------0-------------------0--|
B|------------2---------0--------|------------2---------0--------|
G|2---------------2--------------|2---------------2--------------|
D|-------------------------------|-------------------------------|
A|-------------------------------|-------------------------------|
E|-------------------------------|-------------------------------|
She
e|-------------------------------|-------------------------------|
B|-------------------------------|-------------------------------|
G|-------------------------------|-------------------------------|
D|-------------------------------|-------------------------------|
A|0-----------0------------------|0-----------0------------------|
E|-------------------------------|-------------------------------|



e|--------0-------------------0--|--------0-------------------0--|
B|------------2---------0--------|------------2---------0--------|
G|2---------------2--------------|2---------------2--------------|
D|-------------------------------|-------------------------------|
A|-------------------------------|-------------------------------|
E|-------------------------------|-------------------------------|
said that living with me was bringing her down
e|-------------------------------|-------------------------------|
B|-------------------------------|-------------------------------|
G|-------------------------------|-------------------------------|
D|-------------------------------|-------------------------------|
A|0-----------0------------------|0-----------0------------------|
E|-------------------------------|-------------------------------|



e|--------0-------------------0--|--------0-------------------0--|
B|------------2---------0--------|------------2---------0--------|
G|2---------------2--------------|2---------------2--------------|
D|-------------------------------|-------------------------------|
A|-------------------------------|-------------------------------|
E|-------------------------------|-------------------------------|
yeah for
e|-------------------------------|-------------------------------|
B|-------------------------------|-------------------------------|
G|-------------------------------|-------------------------------|
D|-------------------------------|-------------------------------|
A|0-----------0------------------|0-----------0------------------|
E|-------------------------------|-------------------------------|



e|--------0-------------------0--|--------0-------------------0--|
B|------------2---------0--------|------------2---------0--------|
G|2---------------2--------------|2---------------2--------------|
D|-------------------------------|-------------------------------|
A|-------------------------------|-------------------------------|
E|-------------------------------|-------------------------------|
she would never be free when I was around
e|-------------------------------|-------------------------------|
B|-------------------------------|-------------------------------|
G|-------------------------------|-------------------------------|
D|-------------------------------|-------------------------------|
A|0-----------0------------------|0-----------0------------------|
E|-------------------------------|-------------------------------|


Bm E
e|--------2-------------2--------|0-------0-------0---0---0---0--|
B|------------3---------------3--|0-------0-------0---0---0---0--|
G|----------------4--------------|1-------1-------1---1---1---1--|
D|-------------------------------|2-------2-------2---2---2---2--|
A|2------------------------------|2-------2-------2---2---2---2--|
E|-------------------------------|0-------0-------0---0---0---0--|

e|-------------------------------|-------------------------------|
B|-------------------------------|-------------------------------|
G|-------------------------------|-------------------------------|
D|-------------------------------|-------------------------------|
A|2-----------2------------------|-------------------------------|
E|-------------------------------|0-----------0------------------|


F#m D
e|2-------2-------------2-----2--|2-------2-----------2-------2--|
B|2-------2-------------2-----2--|3-------3-----------3-------3--|
G|2-------2-------------2-----2--|2-------2-----------2-------2--|
D|4-------4-------------4-----4--|0-------0-----------0-------0--|
A|4-------4-------------4-----4--|-------------------------------|
E|2-------2-------------2-----2--|-------------------------------|
She's got a ticket to ride


F#m Gflat5maj7
e|2-------2-----------2----------|2------------------------------|
B|2-------2-----------2----------|2------------------------------|
G|2-------2-----------2----------|4------------------------------|
D|4-------4-----------4----------|5------------------------------|
A|4-------4-----------4----------|5------------------------------|
E|2-------2-----------2----------|3------------------------------|
She's got a ticket to ride


F#m E
e|2-------2---2---2-----2-----2--|0-------0---0---0---0-------0--|
B|2-------2---2---2-----2-----2--|0-------0---0---0---0-------0--|
G|2-------2---2---2-----2-----2--|1-------1---1---1---1-------1--|
D|4-------4---4---4-----4-----4--|2-------2---2---2---2-------2--|
A|4-------4---4---4-----4-----4--|2-------2---2---2---2-------2--|
E|-------------------------------|0-------0---0---0---0-------0--|
She's got a ticket to ride but she don't care


A
e|--------0-------------------0--|--------0-------------------0--|
B|------------2---------0--------|------------2---------0--------|
G|2---------------2--------------|2---------------2--------------|
D|-------------------------------|-------------------------------|
A|-------------------------------|-------------------------------|
E|-------------------------------|-------------------------------|
I
e|-------------------------------|-------------------------------|
B|-------------------------------|-------------------------------|
G|-------------------------------|-------------------------------|
D|-------------------------------|-------------------------------|
A|0-----------0------------------|0-----------0------------------|
E|-------------------------------|-------------------------------|


D
e|--------2-------2---2-------2--|2-------2-------2---2-------2--|
B|--------3-------3---3-------3--|3-------3-------3---3-------3--|
G|--------2-------2---2-------2--|2-------2-------2---2-------2--|
D|--------0-------0---0-------0--|0-------0-------0---0-------0--|
A|-------------------------------|-------------------------------|
E|-------------------------------|-------------------------------|
don't know why she's ridin' so high, She ought to


E D
e|2-------2---2---2---2---2---2--|0-------0-------0---0-------2--|
B|3-------3---3---3---3---3---3--|0-------0-------3---0-------3--|
G|2-------2---2---2---2---2---2--|1-------1-------1---1-------2--|
D|0-------0---0---0---0---0---0--|2-------2-------2---2-------0--|
A|-------------------------------|2-------2-------2---2----------|
E|-------------------------------|0-------0-------0---0----------|
think twice she ought to do right by me Be..


D7 D D7
e|--------2-------2---2-------2--|--------2---2---2---2-------2--|
B|--------3-------3---3-------3--|--------3---1---3---3-------1--|
G|--------2-------2---2-------2--|--------2---2---2---2-------2--|
D|--------0-------0---0-------0--|--------0---0---0---0-------0--|
A|-------------------------------|-------------------------------|
E|-------------------------------|-------------------------------|
fore she gets to saying goodbye she ought to


D E
e|--------2-------2---2----------|0------------------------------|
B|--------3-------3---3----------|0------------------------------|
G|--------2-------2---2----------|1------------------------------|
D|--------0-------0---0----------|2------------------------------|
A|-------------------------------|2------------------------------|
E|-------------------------------|0------------------------------|
think twice she ought to do right by me
e|-------------------------------|-------------------------------|
B|-------------------------------|----------------10B12R10-8B9--/|
G|-------------------------------|----------------------------9--|
D|-------------------------------|-------------------------------|
A|-------------------------------|-------------------------------|
E|-------------------------------|-------------------------------|


E5
e|-------------------------------|
B|-------------------------------|
G|-------------------------------|
D|2---2---2---2---2---2---2---2--|
A|2---2---2---2---2---2---2---2--|
E|0---0---0---0---0---0---0---0--|
I
e|--------10------12B14R12-10-12-|
B|12----------12-----------------|
G|-------------------------------|
D|-------------------------------|
A|-------------------------------|
E|-------------------------------|



A
e|--------0-------------------0--|--------0-------------------0--|
B|------------2---------0--------|------------2---------0--------|
G|2---------------2--------------|2---------------2--------------|
D|-------------------------------|-------------------------------|
A|-------------------------------|-------------------------------|
E|-------------------------------|-------------------------------|
think I'm gonna be sad I think it's today,
e|-------------------------------|-------------------------------|
B|-------------------------------|-------------------------------|
G|-------------------------------|-------------------------------|
D|-------------------------------|-------------------------------|
A|0-----------0------------------|0-----------0------------------|
E|-------------------------------|-------------------------------|



e|--------0-------------------0--|--------0-------------------0--|
B|------------2---------0--------|------------2---------0--------|
G|2---------------2--------------|2---------------2--------------|
D|-------------------------------|-------------------------------|
A|-------------------------------|-------------------------------|
E|-------------------------------|-------------------------------|
yeah The
e|-------------------------------|-------------------------------|
B|-------------------------------|-------------------------------|
G|-------------------------------|-------------------------------|
D|-------------------------------|-------------------------------|
A|0-----------0------------------|0-----------0------------------|
E|-------------------------------|-------------------------------|



e|--------0-------------------0--|--------0-------------------0--|
B|------------2---------0--------|------------2---------0--------|
G|2---------------2--------------|2---------------2--------------|
D|-------------------------------|-------------------------------|
A|-------------------------------|-------------------------------|
E|-------------------------------|-------------------------------|
girl that's driving me mad is going away
e|-------------------------------|-------------------------------|
B|-------------------------------|-------------------------------|
G|-------------------------------|-------------------------------|
D|-------------------------------|-------------------------------|
A|0-----------0------------------|0-----------0------------------|
E|-------------------------------|-------------------------------|


Bm E
e|-------------------------------|0-------0---0---0---0---0------|
B|------------3---------------3--|0-------0---0---0---0---0------|
G|----------------4--------------|1-------1---1---1---1---1------|
D|-------------------------------|2-------2---2---2---2---2------|
A|2------------------------------|2-------2---2---2---2---2------|
E|-------------------------------|0-------0---0---0---0---0------|

e|-------------------------------|-------------------------------|
B|-------------------------------|-------------------------------|
G|-------------------------------|-------------------------------|
D|-------------------------------|-------------------------------|
A|-2----------2------------------|-------------------------------|
E|-------------------------------|0-----------0------------------|


F#m D
e|2------ 2-----------2-------2--|2-------2-----------2---2---0--|
B|2-------2-----------2-------2--|3-------3-----------3---3---0--|
G|2-------2-----------2-------2--|2-------2-----------3---2---0--|
D|4-------4-----------4-------4--|0-------0-----------0---0------|
A|4-------4-----------4-------4--|-------------------------------|
E|2-------2-----------2-------2--|-------------------------------|
She's got a ticket to ride


F#m Gflat5maj7
e|2-------2-------2---2---2------|2------------------------------|
B|2-------2-------2---2---2------|2------------------------------|
G|2-------2-------2---2---2------|4------------------------------|
D|4-------4-------4---4---4------|5------------------------------|
A|4-------4-------4---4---4------|5------------------------------|
E|2-------2-------2---2---2------|3------------------------------|
She's got a ticket to ride


F#m E
e|2-------2-------2---2-------2--|0-------0-------0---0---0------|
B|2-------2-------2---2-------2--|0-------0-------0---0---0------|
G|2-------2-------2---2-------2--|1-------1-------1---1---1------|
D|4-------4-------4---4-------4--|2-------2-------2---2---2------|
A|4-------4-------4---4-------4--|2-------2-------2---2---2------|
E|2-------2-------2---2-------2--|0-------0-------0---0---0------|
She's got a ticket to ride but she don't care


A
e|--------0-------------------0--|--------0-------------------0--|
B|------------2---------0--------|------------2---------0--------|
G|2---------------2--------------|2---------------2--------------|
D|-------------------------------|-------------------------------|
A|-------------------------------|-------------------------------|
E|-------------------------------|-------------------------------|
I
e|-------------------------------|-------------------------------|
B|-------------------------------|-------------------------------|
G|-------------------------------|-------------------------------|
D|-------------------------------|-------------------------------|
A|0-----------0------------------|0-----------0------------------|
E|-------------------------------|-------------------------------|



D
e|--------2-------2---2---2---2--|2-------2-------2---2-------2--|
B|--------3-------3---3---3---3--|3-------3-------3---3-------3--|
G|--------2-------2---2---2---2--|2-------2-------2---2-------2--|
D|--------0-------0---0---0---0--|0-------0-------0---0-------0--|
A|-------------------------------|-------------------------------|
E|-------------------------------|-------------------------------|
don't know why she's ridin' so high, She ought to



E D
e|2-------2---2---2---2---2---2--|0-------0-------0---0-------2--|
B|3-------3---3---3---3---3---3--|0-------0-------3---0-------3--|
G|2-------2---2---2---2---2---2--|1-------1-------1---1-------2--|
D|0-------0---0---0---0---0---0--|2-------2-------2---2-------0--|
A|-------------------------------|2-------2-------2---2----------|
E|-------------------------------|0-------0-------0---0----------|
think twice she ought to do right by me Be..



D7 D D7
e|--------2---2---2---2-------2--|2-------2-------2---2-------2--|
B|--------3---3---3---3-------3--|3-------3-------1---3-------1--|
G|--------2---2---2---2-------2--|2-------2-------2---2-------2--|
D|--------0---0---0---0-------0--|0-------0-------0---0-------0--|
A|-------------------------------|-------------------------------|
E|-------------------------------|-------------------------------|
fore she gets to saying goodbye she ought to


D E
e|------- 2------ 2---2-- ----0--|0------------------------------|
B|--------3-------3---3-------0--|0------------------------------|
G|--------2-------2---2-------1--|1------------------------------|
D|--------0-------0---0-------2--|2------------------------------|
A|----------------------------2--|2------------------------------|
E|----------------------------0--|0------------------------------|
think twice she ought to do right by me
e|-------------------------------|-------------------------------|
B|-------------------------------|----------------10B12R10-8B9--/|
G|-------------------------------|----------------------------9--|
D|-------------------------------|-------------------------------|
A|-------------------------------|-------------------------------|
E|-------------------------------|-------------------------------|


E5
e|-------------------------------|
B|-------------------------------|
G|-------------------------------|
D|2---2---2---2---2---2---2---2--|
A|2---2---2---2---2---2---2---2--|
E|0---0---0---0---0---0---0---0--|
I
e|--------10------12B14-12-10-12-|
B|12----------12-----------------|
G|-------------------------------|
D|-------------------------------|
A|-------------------------------|
E|-------------------------------|



A
e|--------0-------------------0--|--------0-------------------0--|
B|------------2---------0--------|------------2---------0--------|
G|2---------------2--------------|2---------------2--------------|
D|-------------------------------|-------------------------------|
A|-------------------------------|-------------------------------|
E|-------------------------------|-------------------------------|
said that living with me was bringing her down
e|-------------------------------|-------------------------------|
B|-------------------------------|-------------------------------|
G|-------------------------------|-------------------------------|
D|-------------------------------|-------------------------------|
A|0-----------0------------------|0-----------0------------------|
E|-------------------------------|-------------------------------|



e|--------0-------------------0--|--------0-------------------0--|
B|------------2---------0--------|------------2---------0--------|
G|2---------------2--------------|2---------------2--------------|
D|-------------------------------|-------------------------------|
A|-------------------------------|-------------------------------|
E|-------------------------------|-------------------------------|
yeah for
e|-------------------------------|-------------------------------|
B|-------------------------------|-------------------------------|
G|-------------------------------|-------------------------------|
D|-------------------------------|-------------------------------|
A|0-----------0------------------|0-----------0------------------|
E|-------------------------------|-------------------------------|



e|--------0-------------------0--|--------0-------------------0--|
B|------------2---------0--------|------------2---------0--------|
G|2---------------2--------------|2---------------2--------------|
D|-------------------------------|-------------------------------|
A|-------------------------------|-------------------------------|
E|-------------------------------|-------------------------------|
she would never be free when I was around
e|-------------------------------|-------------------------------|
B|-------------------------------|-------------------------------|
G|-------------------------------|-------------------------------|
D|-------------------------------|-------------------------------|
A|0-----------0------------------|0-----------0------------------|
E|-------------------------------|-------------------------------|


Bm E
e|-------------------------------|0-------0-------0---0---0---0--|
B|------------3---------------3--|0-------0-------0---0---0---0--|
G|----------------4--------------|1-------1-------1---1---1---1--|
D|-------------------------------|2-------2-------2---2---2---2--|
A|2------------------------------|2-------2-------2---2---2---2--|
E|-------------------------------|0-------0-------0---0---0---0--|

e|-------------------------------|-------------------------------|
B|-------------------------------|-------------------------------|
G|-------------------------------|-------------------------------|
D|-------------------------------|-------------------------------|
A|2-----------2------------------|-------------------------------|
E|-------------------------------|0-----------0------------------|


F#m D
e|2-------2-------2---2---2---2--|2-------2---2---2---2---2---2--|
B|2-------2-------2---2---2---2--|3-------3---3---3---3---3---3--|
G|2-------2-------2---2---2---2--|2-------2---2---2---2---2---2--|
D|4-------4-------4---4---4---4--|0-------0---0---0---0---0---0--|
A|4-------4-------4---4---4---4--|-------------------------------|
E|2-------2-------2---2---2---2--|-------------------------------|
She's got a ticket to ride


F#m Gflat5maj7
e|2-------2---2---2---2---2------|2------------------------------|
B|2-------2---2---2---2---2------|2------------------------------|
G|2-------2---2---2---2---2------|4------------------------------|
D|4-------4---4---4---4---4------|5------------------------------|
A|4-------4---4---4---4---4------|5------------------------------|
E|2-------2---2---2---2---2------|3------------------------------|
She's got a ticket to ride


F#m E
e|2-------2---2-------2-------0--|0-------0---0---0---0---0------|
B|2-------2---2-------2-------0--|0-------0---0---0---0---0------|
G|2-------2---2-------2-------1--|1-------1---1---1---1---1------|
D|4-------4---4-------4-------2--|2-------2---2---2---2---2------|
A|4-------4---4-------4-------2--|2-------2---2---2---2---2------|
E|-------------------------------|0-------0---0---0---0---0------|
She's got a ticket to ride but she don't care


A
e|--------0-------------------0--|-------------------------------|
B|------------2---------0--------|-------------------------------|
G|2---------------2--------------|2------------------------------|
D|-------------------------------|-------------------------------|
A|-------------------------------|-------------------------------|
E|-------------------------------|-------------------------------|
My baby don't
e|-------------------------------|-------------------------------|
B|-------------------------------|-------------------------------|
G|-------------------------------|-------------------------------|
D|-------------------------------|-------------------------------|
A|0-----------0------------------|0------------------------------|
E|-------------------------------|-------------------------------|


A
e|--------0-------------------0--|--------0-------------------0--|
B|------------2---------0--------|------------2---------0--------|
G|2---------------2--------------|2---------------2--------------|
D|-------------------------------|-------------------------------|
A|-------------------------------|-------------------------------|
E|-------------------------------|-------------------------------|
care My baby don't
e|-------------------------------|-------------------------------|
B|-------------------------------|-------------------------------|
G|--------5B6R5-------7B8R7------|5B6R5---5B6R5------------------|
D|----------------7-----------7--|----------------7--------------|
A|-------------------------------|-------------------------------|
E|-------------------------------|-------------------------------|



e|--------0-------------------0--|--------0-------------------0--|
B|------------2---------0--------|------------2---------0--------|
G|2---------------2--------------|2---------------2--------------|
D|-------------------------------|-------------------------------|
A|-------------------------------|-------------------------------|
E|-------------------------------|-------------------------------|
care My baby don't
e|-------------------------------|-------------------------------|
B|--------7B8R7------------------|--------7B8--------------------|
G|----------------7B8R7---5B6----|----------------7B8-----5B6----|
D|-------------------------------|----7--------------------------|
A|-------------------------------|-------------------------------|
E|-------------------------------|-------------------------------|



e|--------0-------------------0--|--------0-------------------0--|
B|------------2---------0--------|------------2---------0--------|
G|2---------------2--------------|2---------------2--------------|
D|-------------------------------|-------------------------------|
A|-------------------------------|-------------------------------|
E|-------------------------------|-------------------------------|
care My baby don't
e|-------------------------------|-------------------------------|
B|-------------------------------|----7B8------------------------|
G|--------5B6R5-------7B8-5B6----|-------------------------------|
D|7---------------7-----------7--|-------------------------------|
A|-------------------------------|-------------------------------|
E|-------------------------------|-------------------------------|



e|--------0-------------------0--|--------0-------------------0--|
B|------------2---------0--------|------------2---------0--------|
G|2---------------2--------------|2---------------2--------------|
D|-------------------------------|-------------------------------|
A|-------------------------------|-------------------------------|
E|-------------------------------|-------------------------------|
care My baby don't
e|-------------------------------|-------------------------------|
B|---7B8--8R7-----7B8--8R7----7B8R7------------------------------|
G|---7B8--8R7-----7B8--8R7----7B8R7-------5B6---------6B7-5B6----|
D|-------------------------------|------------7------------------|
A|-------------------------------|-------------------------------|
E|-------------------------------|-------------------------------|



e|--------0-------------------0--|--------0-------------------0--|
B|------------2---------0--------|------------2---------0--------|
G|2---------------2--------------|2---------------2--------------|
D|-------------------------------|-------------------------------|
A|-------------------------------|-------------------------------|
E|-------------------------------|-------------------------------|
care My baby don't
e|-------------------------------|----------------------------5--|
B|----------------------------7B8|7B8-----7B8-----7B8-7B8--------|
G|----5B6R5-------7B8R7----------|-------------------------------|
D|7-----------7-----------7------|-------------------------------|
A|-------------------------------|-------------------------------|
E|-------------------------------|-------------------------------|
..............................Fade.............................

************************************

B Bend
R Release
/ slide up
\ slide down
H hammer-on
P pull-off
~ vibrato
+ harmonic
x Mute note
. - play note like a dot in standard notation
^ - ties two notes together

************************************
Song info
Ticket To Ride
The Beatles
2001
  • Rock
  • Pop Rock
Alternative tracks
Similar songs
How Long - Ace
Its Only Love - Bryan Adams
The Boxer - Simon and Garfunkel

Hi! Hope you enjoy backing track experience.
If you want to help us in the development of the project, feel free to donate!