We Can Work It Out - The Beatles
00:00 / 00:00
Tabs and lyrics
Tunning: Standard (E A D G B e)
-------------------------------------------------------------------
THE BEATLES - WE CAN WORK IT OUT (Lennon/McCartney) Released as a
double A-side single with DAY TRIPPER on 3 December
1965.
-------------------------------------------------------------------
Tabbed by:PJVillanueva


Try to see it my way,
Do I have to keep on talking till I can't go on?
While you see it your way,
Run the risk of knowing that our love may soon be gone.
We can work it out,
We can work it out.

Think of what you're saying.
You can get it wrong and still you think that it's alright.
Think of what I'm saying,
We can work it out and get it straight, or say good night.
We can work it out,
We can work it out.
Life is very short, and there's no time
For fussing and fighting, my friend.
I have always thought that it's a crime,
So I will ask you once again.

Try to see it my way,
Only time will tell if I am right or I am wrong.
While you see it your way
There's a chance that we may fall apart before too long.
We can work it out,
We can work it out.
Life is very short, and there's no time
For fussing and fighting, my friend.
I have always thought that it's a crime,
So I will ask you one more time.

Try to see it my way,
Only time will tell if I am right or I am wrong.
While you see it your way
There's a chance that we may fall apart before too long.
We can work it out,
We can work it out.



D Dsus4 D
e|2------ 2---2-- 2-H-3-- 2------|------- 2---2-- 2-H-3-- 3---3--|
B|3-------3---3---3-------3------|--------3---3---3---3---3---3--|
G|2-------2---2---2-------2------|--------2---2---2---2---2---2--|
D|0-------0---0---0-------0------|--------0---0---0---0---0---0--|
A|-------------------------------|-------------------------------|
E|-------------------------------|-------------------------------|
Try to see it my way, Do I have to keep on talking
e|------- ------- ------- -------|------- ------- ------- -------|
B|-------------------------------|-------------------------------|
G|2---------------2-------2------|----------------2--------------|
D|4---------------5-------4------|----------------5--------------|
A|5---------------5-------4------|----------------5--------------|
E|-------------------------------|-------------------------------|


C D Dsus4 D
e|3------ 3---3-- 2------ 2------|2------ 2---2-- 2-H-3-- 2---2--|
B|1-------1---1---3-------3------|3-------3---3---3-------3---3--|
G|0-------0---0---2-------2------|2-------2---2---2-------2---2--|
D|2-------2---2---0-------0------|0-------0---0---0-------0---0--|
A|3-------3---3------------------|-------------------------------|
E|-------------------------------|-------------------------------|
till I can't go on? While you see it your way
e|------- ------- ------- -------|------- ------- ------- -------|
B|-------------------------------|-------------------------------|
G|0---------------2--------------|----------------2-----2--------|
D|2---------------4--------------|----------------5-----4--------|
A|3---------------5--------------|----------------5-----5--------|
E|-------------------------------|-------------------------------|



Dsus4 C D
e|2------ 2---2-- 2---3-- 3---3--|3------ 3---3-- 2------ 2------|
B|3-------3---3---3---3---3---3--|1-------1---1---3-------3----0-|
G|2-------2---2---2---2---2---2--|0-------0---0---2-------2----0-|
D|0-------0---0---0---0---0---0--|2-------2---2---0-------0----0-|
A|-------------------------------|3-------3---3------------------|
E|-------------------------------|-------------------------------|
run the risk of knowing that our love may soon be gone
e|------- ------- ------- -------|------- ------- ------- -------|
B|-------------------------------|-------------------------------|
G|----------------2--------------|0---------------2--------------|
D|----------------5--------------|2---------------4--------------|
A|----------------5--------------|3---------------5--------------|
E|-------------------------------|-------------------------------|



G D G A
e|3---3-3 3---3-- 2---2-2 2-2-2--|3---3-3 3-----3 0-----0 0------|
B|0---0-0-0---0---3---3-3-3-3-3-0|3---3-3-3-----0-2-----2-2------|
G|0---0-0-0---0---2---2-2-2-2-2-0|0---0-0-0-----0-2-----2-2------|
D|0---0-0-0---0---0---0-0-0-0-0-0|0---0-0-0-----0-2-----2-2------|
A|2---2-2-2---2------------------|2---2-2-2-----2-0-----0-0------|
E|3---3-3-3---3------------------|3---3-3-3-----3----------------|
We can work it out, We can work it out
e|------- ------- ------- -------|------- ------- ------- -------|
B|-------------------------------|-------------------------------|
G|4---------------2--------------|4---------------6--------------|
D|5---------------4--------------|5---------------7--------------|
A|5---------------5--------------|5---------------7--------------|
E|-------------------------------|-------------------------------|



D Dsus4 D Dsus4
e|2------ 2---2-- 2-H-3-- 2---2--|2------ ----2-- 2-H-3-- 3---3--|
B|3-------3---3---3-------3---3--|3-----------3---3---3---3---3--|
G|2-------2---2---2-------2---2--|2-----------2---2---2---2---2--|
D|0-------0---0---0-------0---0--|0-----------0---0---0---0---0--|
A|-------------------------------|-------------------------------|
E|-------------------------------|-------------------------------|
Think of what you're saying. You can get it wrong and still you think
e|------- ------- ------- -------|------- ------- ------- -------|
B|-------------------------------|-------------------------------|
G|2---------------2-------2------|----------------2--------------|
D|4---------------5-------4------|----------------5--------------|
A|5---------------5-------4------|----------------5--------------|
E|-------------------------------|-------------------------------|



C D Dsus4 D
e|3---3-- 3---3-- 2------ 2---2--|2------ 2---2-- 2-H-3-- 2---2--|
B|1---1---1---1---3-------3---3--|3-------3---3---3-------3---3--|
G|0---0---0---0---2-------2---2--|2-------2---2---2-------2---2--|
D|2---2---2---2---0-------0---0--|0-------0---0---0-------0---0--|
A|3---3---3---3------------------|-------------------------------|
E|-------------------------------|-------------------------------|
that it's allright. Think of what I'm saying
e|------- ------- ------- -------|------- ------- ------- -------|
B|-------------------------------|-------------------------------|
G|0---------------2--------------|----------------2-----2--------|
D|2---------------4--------------|----------------5-----4--------|
A|3---------------5--------------|----------------5-----5--------|
E|-------------------------------|-------------------------------|



C D
e|2------ 2---2-- 2---3-- 3---3--|3---3-- 3---3-- 2---2-- 2------|
B|3-------3---3---3---3---3---3--|1---1---1---1---3---3---3---0--|
G|2-------2---2---2---2---2---2--|0---0---0---0---2---2---2---0--|
D|0-------0---0---0---0---0---0--|2---2---2---2---0---0---0---0--|
A|-------------------------------|3---3---3---3------------------|
E|-------------------------------|-------------------------------|
We can work it out and get it straight or say goodnight
e|------- ------- ------- -------|------- ------- ------- -------|
B|-------------------------------|-------------------------------|
G|----------------2--------------|0---------------2--------------|
D|----------------5--------------|2---------------4--------------|
A|----------------5--------------|3---------------5--------------|
E|-------------------------------|-------------------------------|



G D G A
e|3---3-- 3---3-- 2---2-- 2------|3---3-- 3---3-- 0------ --0-0--|
B|3---3---3---3---3---3---3---0--|3---3---3---0---2---------2-2--|
G|0---0---0---0---2---2---2---0--|0---0---0---0---2---------2-2--|
D|0---0---0---0---0---0---0---0--|0---0---0---0---2---------2-2--|
A|2---2---2---2------------------|2---2---2---2---0---------0-0--|
E|3---3---3---3------------------|3---3---3---3------------------|
We can work it out, We can work it out
e|------- ------- ------- -------|------- ------- ------- -------|
B|-------------------------------|-------------------------------|
G|4---------------2--------------|4---------------6--------------|
D|5---------------4--------------|5---------------7--------------|
A|5---------------5--------------|5---------------7--------------|
E|-------------------------------|-------------------------------|





Bm
e|2---2-- 2------ 2---2-- 2---2--|2------ 2------ 2---2-- 2---2--|
B|3---3---3-------3---3---3---3--|3-------3-------3---3---3---3--|
G|4---4---4-------4---4---4---4--|4-------4-------4---4---4---4--|
D|4---4---4-------4---4---4---4--|4-------4-------4---4---4---4--|
A|2---2---2-------2---2---2---2--|2-------2-------2---2---2---2--|
E|-------------------------------|-------------------------------|
Life is very short and there's no time
e|------- ------- ------- -------|------- ------- ------- -------|
B|-------------------------------|-------------------------------|
G|4------------------------------|----------------4--------------|
D|4------------------------------|----------------4--------------|
A|2------------------------------|----------------0--------------|
E|-------------------------------|-------------------------------|



G F#
e|3------ 3------ 3---3-- 3---3--|2------ 2------ 2---2-- 2---2--|
B|3-------3-------3---3---3---3--|2-------2-------2---2---2---2--|
G|4-------4-------4---4---4---4--|3-------3-------3---3---3---3--|
D|5-------5-------5---5---5---5--|4-------4-------4---4---4---4--|
A|5-------5-------5---5---5---5--|4-------4-------4---4---4---4--|
E|3-------3-------3---3---3---3--|2-------2-------2---2---2---2--|
for fussing and
e|------- ------- ------- -------|------- ------- ------- -------|
B|-------------------------------|-------------------------------|
G|4------------------------------|4---------------3--------------|
D|4------------------------------|4---------------4--------------|
A|-------------------------------|-------------------------------|
E|3------------------------------|2---------------2--------------|



Bm
e|------ 2----- 2-----|------ 2----- 2-----|------ 2----- 2-----|
B|-------3------3-----|-------3------3-----|-------3------3-----|
G|-------4------4-----|-------4------4-----|-------4------4-----|
D|-------4------4-----|-------4------4-----|-------4------4-----|
A|-------2------2-----|-------2------2-----|-------2------2-----|
E|--------------------|--------------------|--------------------|
fighting, my friend
e|------ ------ ------|------ ------ ------|------ ------ ------|
B|--------------------|--------------------|--------------------|
G|-------4------4-----|-------4------4-----|-------4------4-----|
D|-------4------4-----|-------4------4-----|-------4------4-----|
A|2-------------------|0-------------------|--------------------|
E|--------------------|--------------------|3-------------------|



e|------ 2----- 2-----|2------ 2------ 2---2-- 2---2--|
B|-------3------3-----|3-------3-------3---3---3---3--|
G|-------4------4-----|4-------4-------4---4---4---4--|
D|-------4------4-----|4-------4-------4---4---4---4--|
A|-------2------2-----|2-------2-------2---2---2---2--|
E|--------------------|-------------------------------|
I have always thought
e|------ ------ ------|------- ------- ------- -------|
B|--------------------|-------------------------------|
G|-------4------4-----|4------------------------------|
D|-------4------4-----|4------------------------------|
A|--------------------|2------------------------------|
E|3-------------------|-------------------------------|


G F#
e|2------ 2------ 2---2-- 2---2--|3------ 3------ 3---3-- 3---2--|
B|3-------3-------3---3---3---3--|3-------3-------3---3---3---2--|
G|4-------4-------4---4---4---4--|4-------4-------4---4---4---3--|
D|4-------4-------4---4---4---4--|5-------5-------5---5---5---4--|
A|2-------2-------2---2---2---2--|5-------5-------5---5---5---4--|
E|-------------------------------|3-------3-------3---3---3---2--|
that it's a crime
e|------- ------- ------- -------|------- ------- ------- -------|
B|-------------------------------|-------------------------------|
G|----------------4--------------|4------------------------------|
D|----------------4--------------|4------------------------------|
A|----------------0--------------|-------------------------------|
E|-------------------------------|3------------------------------|



Bm
e|2------ 2------ 2---2-- 2---2--|------ 2----- 2-----|
B|2-------2-------2---2---2---2--|-------3------3-----|
G|3-------3-------3---3---3---3--|-------4------4-----|
D|4-------4-------4---4---4---4--|-------4------4-----|
A|4-------4-------4---4---4---4--|-------2------2-----|
E|2-------2-------2---2---2---2--|--------------------|
so I will ask you
e|------- ------- ------- -------|------ ------ ------|
B|-------------------------------|--------------------|
G|4---------------3--------------|-------4------4-----|
D|4---------------4--------------|-------4------4-----|
A|-------------------------------|2-------------------|
E|2---------------2--------------|--------------------|



e|------ 2----- 2-----|------ 2----- 2-----|------ 2----- 2-----|
B|-------3------3-----|-------3------3-----|-------3------3-----|
G|-------4------4-----|-------4------4-----|-------4------4-----|
D|-------4------4-----|-------4------4-----|-------4------4-----|
A|-------2------2-----|-------2------2-----|-------2------2-----|
E|--------------------|--------------------|--------------------|
once again.
e|------ ------ ------|------ ------ ------|------ ------ ------|
B|--------------------|--------------------|--------------------|
G|-------4------4-----|-------4------4-----|-------4------4-----|
D|-------4------4-----|-------4------4-----|-------4------4-----|
A|0-------------------|--------------------|--------------------|
E|--------------------|3-------------------|2-------------------|



D Dsus4 D Dsus4
e|2------ 2---2-- 2-H-3-- 2------|2------ 2---2-- 2-H-3-- 3---3--|
B|3-------3---3---3-------3------|3-------3---3---3---3---3---3--|
G|2-------2---2---2-------2------|2-------2---2---2---2---2---2--|
D|0-------0---0---0-------0------|0-------0---0---0---0---0---0--|
A|-------------------------------|-------------------------------|
E|-------------------------------|-------------------------------|
Try to see it my way. Only time will tell If I am
e|------- ------- ------- -------|------- ------- ------- -------|
B|-------------------------------|-------------------------------|
G|2---------------2-------2------|----------------2--------------|
D|4---------------5-------4------|----------------5--------------|
A|5---------------5-------4------|----------------5--------------|
E|-------------------------------|-------------------------------|



C D Dsus4 D
e|3------ 3---3-- --2-2-- 2------|2------ 2---2-- 2-H-3-- 2------|
B|1-------1---1-----3-3---3------|3-------3---3---3-------3------|
G|0-------0---0-----2-2---2------|2-------2---2---2-------2------|
D|2-------2---2-----0-0---0------|0-------0---0---0-------0------|
A|3-------3---3------------------|-------------------------------|
E|-------------------------------|-------------------------------|
right or I am wrong. While you see it your way
e|------- ------- ------- -------|------- ------- ------- -------|
B|-------------------------------|-------------------------------|
G|0---------------2--------------|----------------2-----2--------|
D|2---------------4--------------|----------------5-----4--------|
A|3---------------5--------------|----------------5-----5--------|
E|-------------------------------|-------------------------------|



Dsus4 C D
e|2------ 2---2-- 2-H-3-- 3---3--|3---3-- 3---3-- 2------ 2------|
B|3-------3---3---3-------3---3--|1---1---1---1---3-------3---0--|
G|2-------2---2---2-------2---2--|0---0---0---0---2-------2---0--|
D|0-------0---0---0-------0---0--|2---2---2---2---0-------0---0--|
A|-------------------------------|3---3---3---3------------------|
E|-------------------------------|-------------------------------|
there's a chance that we may fall apart before too long.
e|------- ------- ------- -------|------- ------- ------- -------|
B|-------------------------------|-------------------------------|
G|----------------2--------------|0---------------2--------------|
D|----------------5--------------|2---------------4--------------|
A|----------------5--------------|3---------------5--------------|
E|-------------------------------|-------------------------------|



G D G A
e|3---3-3 3-3-3-- 2---2-2 2-2-2--|3---3-3 3-3-3-- 0------ --0-0--|
B|0---0-0-0-0-0---3---3-3-3-3-3-0|3---3-3-3-3-3---2---------2-2--|
G|0---0-0-0-0-0---2---2-2-2-2-2-0|0---0-0-0-0-0---2---------2-2--|
D|0---0-0-0-0-0---0---0-0-0-0-0-0|0---0-0-0-0-0---2---------2-2--|
A|2---2-2-2-2-2------------------|2---2-2-2-2-2---0---------0-0--|
E|3---3-3-3-3-3------------------|3---3-3-3-3-3------------------|
We can work it out, We can work it out
e|------- ------- ------- -------|------- ------- ------- -------|
B|-------------------------------|-------------------------------|
G|4---------------2--------------|4---------------6--------------|
D|5---------------4--------------|5---------------7--------------|
A|5---------------5--------------|5---------------7--------------|
E|-------------------------------|-------------------------------|



Bm
e|2------ --2-2-2 ------- --2-2-2|------- --2-2-- ------2 2-2-2--|
B|3---------3-3-3-----------3-3-3|----------3-3---------3-3-3-3--|
G|4---------4-4-4-----------4-4-4|----------4-4---------4-4-4-4--|
D|4---------4-4-4-----------4-4-4|----------4-4---------4-4-4-4--|
A|2---------2-2-2-----------2-2-2|----------2-2---------2-2-2-2--|
E|-------------------------------|-------------------------------|
Life is very short and there's no time
e|------- ------- ------- -------|------- ------- ------- -------|
B|-------------------------------|-------------------------------|
G|4------------------------------|----------------4--------------|
D|4------------------------------|----------------4--------------|
A|2------------------------------|----------------0--------------|
E|-------------------------------|-------------------------------|



G F#
e|3------ --3-3-- ------- --3-3--|2---2-- --2-2-2 ------2 2-2-2--|
B|3---------3-3-------------3-3--|2---2-----2-2-2-------2-2-2-2--|
G|4---------4-4-------------4-4--|3---3-----3-3-3-------3-3-3-3--|
D|5---------5-5-------------5-5--|4---4-----4-4-4-------4-4-4-4--|
A|5---------5-5-------------5-5--|4---4-----4-4-4-------4-4-4-4--|
E|3---------3-3-------------3-3--|2---2-----2-2-2-------2-2-2-2--|
for fussing and
e|------- ------- ------- -------|------- ------- ------- -------|
B|-------------------------------|-------------------------------|
G|4------------------------------|4---------------3--------------|
D|4------------------------------|4---------------4--------------|
A|-------------------------------|-------------------------------|
E|3------------------------------|2---------------2--------------|



Bm
e|------ 2----- 2-----|------ 2----- 2-----|------ 2----- 2-----|
B|-------3------3-----|-------3------3-----|-------3------3-----|
G|-------4------4-----|-------4------4-----|-------4------4-----|
D|-------4------4-----|-------4------4-----|-------4------4-----|
A|-------2------2-----|-------2------2-----|-------2------2-----|
E|--------------------|--------------------|--------------------|
fighting, my friend
e|------ ------ ------|------ ------ ------|------ ------ ------|
B|--------------------|--------------------|--------------------|
G|-------4------4-----|-------4------4-----|-------4------4-----|
D|-------4------4-----|-------4------4-----|-------4------4-----|
A|2-------------------|0-------------------|--------------------|
E|--------------------|--------------------|3-------------------|




e|------ 2----- 2-----|2-----2 2-2-2-- 2-----2 2-2-2--|
B|-------3------3-----|3-----3-3-3-3---3-----3-3-3-3--|
G|-------4------4-----|4-----4-4-4-4---4-----4-4-4-4--|
D|-------4------4-----|4-----4-4-4-4---4-----4-4-4-4--|
A|-------2------2-----|2-----2-2-2-2---2-----2-2-2-2--|
E|--------------------|-------------------------------|
I have always thought
e|------ ------ ------|------- ------- ------- -------|
B|--------------------|-------------------------------|
G|-------4------4-----|4------------------------------|
D|-------4------4-----|4------------------------------|
A|--------------------|2------------------------------|
E|3-------------------|-------------------------------|



G
e|2-----2 2-2-2-- 2-----2 2-2-2--|3-----3 3-3-3-- 3-----3 3-3-3--|
B|3-----3-3-3-3---3-----3-3-3-3--|3-----3-3-3-3---3-----3-3-3-3--|
G|4-----4-4-4-4---4-----4-4-4-4--|4-----4-4-4-4---4-----4-4-4-4--|
D|4-----4-4-4-4---4-----4-4-4-4--|5-----5-5-5-5---5-----5-5-5-5--|
A|2-----2-2-2-2---2-----2-2-2-2--|5-----5-5-5-5---5-----5-5-5-5--|
E|-------------------------------|3-----3-3-3-3---3-----3-3-3-3--|
that it's a crime
e|------- ------- ------- -------|------- ------- ------- -------|
B|-------------------------------|-------------------------------|
G|----------------4--------------|4------------------------------|
D|----------------4--------------|4------------------------------|
A|----------------0--------------|-------------------------------|
E|-------------------------------|3------------------------------|



F# Bm
e|2---2-- --2-2-- 2-----2 2-2-2--|------ 2----- 2-----|
B|2---2-----2-2---2-----2-2-2-2--|-------3------3-----|
G|3---3-----3-3---3-----3-3-3-3--|-------4------4-----|
D|4---4-----4-4---4-----4-4-4-4--|-------4------4-----|
A|4---4-----4-4---4-----4-4-4-4--|-------2------2-----|
E|2---2-----2-2---2-----2-2-2-2--|--------------------|
so I will ask you
e|------- ------- ------- -------|------ ------ ------|
B|-------------------------------|--------------------|
G|4---------------3--------------|-------4------4-----|
D|4---------------4--------------|-------4------4-----|
A|-------------------------------|2-------------------|
E|2---------------2--------------|--------------------|




e|------ 2----- 2-----|------ 2----- 2-----|------ 2----- 2-----|
B|-------3------3-----|-------3------3-----|-------3------3-----|
G|-------4------4-----|-------4------4-----|-------4------4-----|
D|-------4------4-----|-------4------4-----|-------4------4-----|
A|-------2------2-----|-------2------2-----|-------2------2-----|
E|--------------------|--------------------|--------------------|
once again.
e|------ ------ ------|------ ------ ------|------ ------ ------|
B|--------------------|--------------------|--------------------|
G|-------4------4-----|-------4------4-----|-------4------4-----|
D|-------4------4-----|-------4------4-----|-------4------4-----|
A|0-------------------|--------------------|--------------------|
E|--------------------|3-------------------|2-------------------|



D Dsus4 D Dsus4
e|2------ 2------ 2-H-3-- 2---2--|2---2-- 2---2-- 2-H-3-- 3---3--|
B|3-------3-------3-------3---3--|3---3---3---3---3-------3---3--|
G|2-------2-------2-------2---2--|2---2---2---2---2-------2---2--|
D|0-------0-------0-------0---0--|0---0---0---0---0-------0---0--|
A|-------------------------------|-------------------------------|
E|-------------------------------|-------------------------------|
Try to see it my way. Only time will tell If I am
e|------- ------- ------- -------|------- ------- ------- -------|
B|-------------------------------|-------------------------------|
G|2---------------2-------2------|----------------2--------------|
D|4---------------5-------4------|----------------5--------------|
A|5---------------5-------4------|----------------5--------------|
E|-------------------------------|-------------------------------|



C D Dsus4 D
e|3------ 3---3-- 2---2-- 2------|2---2-- 2---2-- 2-H-3-- 2---2--|
B|1-------1---1---3---3---3------|3---3---3---3---3-------3---3--|
G|0-------0---0---2---2---2------|2---2---2---2---2-------2---2--|
D|2-------2---2---0---0---0------|0---0---0---0---0-------0---0--|
A|3-------3---3------------------|-------------------------------|
E|-------------------------------|-------------------------------|
right or I am wrong. While you see it your way
e|------- ------- ------- -------|------- ------- ------- -------|
B|-------------------------------|-------------------------------|
G|0---------------2--------------|----------------2-----2--------|
D|2---------------4--------------|----------------5-----4--------|
A|3---------------5--------------|----------------5-----5--------|
E|-------------------------------|-------------------------------|



Dsus4 C D
e|2---2-2 2-2-2-- 2-H-3-- 3---3--|3---3-- 3---3-- 2------ 2------|
B|3---3-3-3-3-3---3-------3---3--|1---1---1---1---3-------3---0--|
G|2---2-2-2-2-2---2-------2---2--|0---0---0---0---2-------2---0--|
D|0---0-0-0-0-0---0-------0---0--|2---2---2---2---0-------0---0--|
A|-------------------------------|3---3---3---3------------------|
E|-------------------------------|-------------------------------|
there's a chance that we may fall apart before too long
e|------- ------- ------- -------|------- ------- ------- -------|
B|-------------------------------|-------------------------------|
G|----------------2--------------|0---------------2--------------|
D|----------------5--------------|2---------------4--------------|
A|----------------5--------------|3---------------5--------------|
E|-------------------------------|-------------------------------|



G D G A
e|3---3-3 3-3-3-- 2---2-2 2-2-2--|3---3-3 3-----3 0-----0 0------|
B|0---0-0-0-0-0---3---3-3-3-3-3-0|3---3-3-3-----0-2-----2-2------|
G|0---0-0-0-0-0---2---2-2-2-2-2-0|0---0-0-0-----0-2-----2-2------|
D|0---0-0-0-0-0---0---0-0-0-0-0-0|0---0-0-0-----0-2-----2-2------|
A|2---2-2-2-2-2------------------|2---2-2-2-----2-0-----0-0------|
E|3---3-3-3-3-3------------------|3---3-3-3-----3----------------|
We can work it out, We can work it out
e|------- ------- ------- -------|------- ------- ------- -------|
B|-------------------------------|-------------------------------|
G|4---------------2--------------|4---------------6--------------|
D|5---------------4--------------|5---------------7--------------|
A|5---------------5--------------|5---------------7--------------|
E|-------------------------------|-------------------------------|



D (.
e|------ 2----- 2-----|------ 2----- 2-----|2----- ------ ------|
B|-------3------3-----|-------3------3-----|3-------------------|
G|-------2------2-----|-------2------2-----|2-------------------|
D|-------0------0-----|-------0------0-----|0-------------------|
A|--------------------|--------------------|--------------------|
E|--------------------|--------------------|--------------------|

e|------ ------ ------|------ ------ ------|5----- ------ ------|
B|--------------7-----|8------7--7---8-----|7-------------------|
G|-------7------7-----|7------7--7---7-----|7-------------------|
D|7------7------------|9------7------9-----|0-------------------|
A|9-------------------|--------------------|--------------------|
E|--------------------|--------------------|--------------------|


B Bend
R Release
/ slide up
\ slide down
H hammer-on
P pull-off
~ vibrato
+ harmonic
x Mute note
. - play note like a dot in standard notation
^ - ties two notes together
Song info
We Can Work It Out
The Beatles
2001
  • Pop
  • Rock
  • Pop Rock
Alternative tracks
Similar songs
Paperback Writer - The Beatles
The Word - The Beatles
Oh Well - Fleetwood Mac
Long As I Can See The Light - Creedence Clearwater Revival

Hi! Hope you enjoy backing track experience.
If you want to help us in the development of the project, feel free to donate!