She Sells Sanctuary - The Cult
00:00 / 00:00
Tabs and lyrics
Tunning: Standard (E A D G B e)
The Cult: She Sells Sanctuary
tabbed by edbert

Standard Tuning

for the effects I use flanger on my digitech rp300, especially for the intro
try some reverb also

Intro
e|--------------------------------------------------|
b|--------------------------------------------------|
g|--14--12--11--7--5h7--19--5h7--5--5--7--7--2------|
d|--------------------------------------------------|
a|--------------------------------------------------|
E|--------------------------------------------------|

e|--------------------------------------------------|
b|----------------------------------------------15--|
g|--14--12--16--14--12h14--12h14-12--12-14--14------|
d|--------------------------------------------------|
a|--------------------------------------------------|
E|--------------------------------------------------|


Riff 1
e|--------------------------------------------------|
b|--------------------------------------------------|
g|-14-14-12-11-12-11-----------------/12-11---------|
d|-------------------12-12--10-12-----------12-12---|
a|--------------------------------12----------------|
E|--------------------------------------------------|


Main Rhythm
D C G
e|--------------------------|-----------------33--3-|
b|--------------------------|-----------------33--3-|
g|-7------------------------|-5---------------00--0-|
d|-7------------------------|-5---------------00--0-|
a|-5------------------------|-3---------------22--2-|
E|--------------------------|-----------------33--3-|

** sometimes the D and C chords here are played muted
and the G isn't played
the other times the D and C chords are louder and the
full G is struck ("and the world")


-here is the pattern of the rhythm
D
Oh the heads that turn

C G
Make my back burn

D
And those heads that turn

C G
Make my back - make my back burn



Riff 2
e|-----------------------------------------------------|
b|-----------------------------------------------------|
g|-14-------16-14-------14\12--12-12\11-11-11-(/)------|
d|-----------------------------------------------------|
a|-----------------------------------------------------|
E|-----------------------------------------------------|

e|-----------------------------------------------------|
b|-----------------------------------------------------|
g|-14-------16-14-------14\12--12-12\11-11-11\9-9-9-(/)|
d|-----------------------------------------------------|
a|-----------------------------------------------------|
E|-----------------------------------------------------|


solo
e|-----------------------------------------------------|
b|-----------------------------------------------------|
g|-14-12-10-14-12-10-14-12-10-14-12-10-14-12-----------|
d|-----------------------------------------------------|
a|-----------------------------------------------------|
E|-----------------------------------------------------|


outro F#
e|--------2--------------------------------------------|
b|--------2--------------------------------------------|
g|-14-12--3--------------------------------------------|
d|--------4--------------------------------------------|
a|-----------------------------------------------------|
E|-----------------------------------------------------|


{ Intro }

{ Riff 1 }

Oh the heads that turn
Make my back burn
And those heads that turn
Make my back - make my back burn

{ Riff 2 }

The sparkle in your eyes
Keeps me alive
And the sparkle in your eyes
Keeps me alive - keeps me alive

And the world
And the world turns around
The world and the world yeah yeah
The world drags me down

{ Riff 1 }

Oh the heads that turn
Make my back burn
And those heads that turn
Make my back - make my back burn yeah yeah

{ Riff 2 } Yeah yeah he-hey Yeah yeah he-hey

The fire in your eyes
Keeps me alive
And the fire in your eyes
Keeps me alive

I'm sure in her you'll find
The sanctuary
I'm sure in her you'll find
The sanctuary

And the world
The world turns around
And the world and the world
The world drags me down

And the world and the world and the world
The world turns around
And the world and the world and the world and the world
The world drags me down

{ Intro } Ah ah


{ solo } Yeah yeah he-hey Yeah yeah he-hey

( Yeah yeah he-hey ) And the world
( Yeah yeah he-hey ) And the world turns around
( Yeah yeah he-hey ) And the world and the world
( Yeah yeah he-hey ) Yeah the world drags me down

( Yeah yeah he-hey ) And the world
( Yeah yeah he-hey ) Yeah the world turns around
( Yeah yeah he-hey ) And the world and the world
( Yeah yeah he-hey ) The world drags me down

{ 1st half of intro } Yeah yeah he-hey { 2x }
{ Riff 1 } Sanctuary { 2x }
{ Outro, fades out w/ first half of intro }


any questions e-mail me at mac3214@earthlink.net
or im me at mac02546
Tunning: Standard (E A D G B e)
Artist-The Cult
Song -She Sells Sanctuary
Album-The Cult
Words by-Ian Astbury
Tabbed By-Smellslikefeet1

the intro and the fills are 100% right u need an eco pad to make it sounds exact
im not totally sure about the cords

H-Hammeron
S-slide to
P-pulloff

D C G
e|---| |---| |-3-|
B|---| |---| |-3-|
G|-7-| |-5-| |-0-|
D|-7-| |-5-| |-0-|
A|-5-| |-3-| |-2-|
E|---| |---| |-3-|

Intro
e|------------------------------------|-----------------------------------|
B|---10--8--7---7-8--3-3--1-1-3-3-----|---10--8--12-12-10--8h10-10-8h10-10|
G|--------------------------------0-0-|-----------------------------------|
D|-0---0--0---0---------0-----------2-|-0---0---0---------0---------------|
A|------------------------------------|-----------------------------------|
E|------------------------------------|-----------------------------------|

e|------------------10-|
B|-10--8---10--8-------|
G|-----0---------------|
D|---0---0---0---0---0-| < finger pick the open on the cord
A|---------------------|
E|---------------------|

intro to verse
d d d d d d d d c c c c g g g g
e|--------------------|------------------------------|
B|--------------------|------------------------------|
G|-14-12-11-12-11-7-7-|-7-7-5-5-7-7-2-s-12-11-7-7----|
D|-0--0--0--0--0--0-0-|-0-0-0-0-0-0-0---0--0--0-0----|
A|--------------------|------------------------------|
E|--------------------|------------------------------|

Oh the Heads That Turn...
d d d d d d d d c c c c g g g g
e|--------------------------------------------|
B|--------------------------------------------|
G|-7-7-7-7-7-7-7-7--5-5-5-5--12-12-12-12------|x4
D|-0-0-0-0-0-0-0-0--0-0-0-0--0--0--0--0-------|
A|--------------------------------------------|
E|--------------------------------------------|

second part
e|----------------------------------|---------------------------------------|
B|----------------------------------|---------------------------------------|
G|-12s14-14-12s14-14-14-14-14-16-14-|-14-14-14-14-12-11-11-7-7-12-12-12-11-7|
D|-0--0-----0--0--0--0--0--0--0--0--|-0--0--0--0--0--0--0--0-0-0--0--0--0--0|
A|----------------------------------|---------------------------------------|
E|----------------------------------|---------------------------------------|
Play this twice^

third part
e|--------------------------------------------|
B|--------------------------------------------|
G|-7-7-7-7-7-7-7-7--5-5-5-5--12-12-12-12------|
D|-0-0-0-0-0-0-0-0--0-0-0-0--0--0--0--0-------|x2
A|--------------------------------------------|
E|--------------------------------------------|

G G G G
e|-----------------------------3-3-3-3--------|
B|-----------------------------3-3-3-3--------|
G|-7-7-7-7-7-7-7-7--5-5-5-5----0-0-0-0--------|
D|-0-0-0-0-0-0-0-0--0-0-0-0----0-0-0-0--------|x2
A|-----------------------------2-2-2-2--------|
E|-----------------------------3-3-3-3--------| this part comes up more through the song

thats pretty much all u need to know
Tunning: Standard (E A D G B e)
SHE SELLS SANCTUARY
As recorded by The Cult
(From the 1996 Album HIGH OCTANE CULT)


Transcribed by GuitarPlayer

Words and Music by The Cult

Gtr I (E A D G B E) - 'Untitled'
Gtr II (E A D G B E) - 'Untitled'
Gtr III (E A D G B E) - 'Untitled'


[Introduction]

Q=73
4/4
Gtr I
<
W S E S E S E S E S S S S S E S E S H +S
e|----------|----------------------------|--------------------|
B|----------|----------------------------|--------------------|
G|----------|---14---12---11---7---5h7-5h|=7-5---7---2----(2)-|
D|----------|-0----0----0----0---0-------|-----0---0----------|
A|----------|----------------------------|--------------------|
E|----------|----------------------------|--------------------|


S E S E S E S E S S S S S E S E S H +S
e|--------------------------------|-------------------------|
B|--------------------------------|--------------15----(15)-|
G|---14---12---16---14---12h14-12h|=14-12---14--------------|
D|-0----0----0----0----0----------|-------0----0------------|
A|--------------------------------|-------------------------|
E|--------------------------------|-------------------------|


[Pre-Verse]

D5 G5/D D G5/D D CsusD/D D5G5/D
Gtrs I, II
E S E S E S S E E S S E S E S E S S E Q
e||--------------------------------|------------------------||
B||o-------------------------------|-----------------------o||
G||--14-14-12-12-11-12p11--7-7-7-7-|-5-5-7-7-2-12p11--7-7---||
D||---0--0--0--0--0--0-(0)-0-0-0-0-|-0-0-0-0-0--0-(0)-0-0---||
A||o-------------------------------|-----------------------o||
E||--------------------------------|------------------------||
|
| Gtr III
| W H S S E Q
e||--------------------------------|---------------3--3-3---||
B||o-------------------------------|---------------3--3-3--o||
G||--------------------------------|---------------0--0-0---||
D||--------------------------------|---------------x--x-x---||
A||o-------------------------------|---------------2--2-2--o||
E||--------------------------------|---------------3--3-3---||


[Verse]

D Csus2/D G5/D
Gtrs I, II
PM| PM| PM PM| PM| PM PM| PM| PM PM| PM| PM
S S S S S S S S S S S S S S S S S S S S S S S S S S S S S S S S
e||----------------------------------|--------------------------------------||
B||o---------------------------------|-------------------------------------o||
G||--7-----7-----7---7-----7-----7---|-5-----5-----5---12-----12-----12-----||
D||--0-0-0-0-0-0-0-0-0-0-0-0-0-0-0-0-|-0-0-0-0-0-0-0-0--0-0-0--0-0-0--0-0---||
A||o---------------------------------|-------------------------------------o||
E||----------------------------------|--------------------------------------||


[Interlude]

G5/D5 Bm/DD5 G5/D D
S S S E S E S S S S E E S S S E S E S S E E E
e||----------------------------------------|----------------------------------||
B||o---------------------------------------|---------------------------------o||
G||--12s14--14-14-14-14-14-14-14s16--14-14p|=12--12-12-12-12-12-12p11--7-7-7--||
D||---0-(0)--0--0--0--0--0--0--0-(0)--0--0-|-(0)--0--0--0--0--0--0-(0)-0-0-0--||
A||o---------------------------------------|---------------------------------o||
E||----------------------------------------|----------------------------------||
|
| Gtr III
| W H S S E Q
e||----------------------------------------|------------------------3--3-3----||
B||o---------------------------------------|------------------------3--3-3---o||
G||----------------------------------------|------------------------0--0-0----||
D||----------------------------------------|------------------------x--x-x----||
A||o---------------------------------------|------------------------2--2-2---o||
E||----------------------------------------|------------------------3--3-3----||


[Chorus]

D Csus2/D G5/D
PM| PM| PM PM| PM| PM PM| PM| PM PM| PM| PM
S S S S S S S S S S S S S S S S S S S S S S S S S S S S S S S S
e||----------------------------------|--------------------------------------||
B||o---------------------------------|-------------------------------------o||
G||--7-----7-----7---7-----7-----7---|-5-----5-----5---12-----12-----12-----||
D||--0-0-0-0-0-0-0-0-0-0-0-0-0-0-0-0-|-0-0-0-0-0-0-0-0--0-0-0--0-0-0--0-0---||
A||o---------------------------------|-------------------------------------o||
E||----------------------------------|--------------------------------------||


D Csus2/D G5/D
PM| PM| PM PM| PM| PM PM| PM| PM PM| PM| PM
S S S S S S S S S S S S S S S S S S S S S S S S S S S S S S S S
e||----------------------------------|--------------------------------------||
B||o---------------------------------|-------------------------------------o||
G||--7-----7-----7---7-----7-----7---|-5-----5-----5---12-----12-----12-----||
D||--0-0-0-0-0-0-0-0-0-0-0-0-0-0-0-0-|-0-0-0-0-0-0-0-0--0-0-0--0-0-0--0-0---||
A||o---------------------------------|-------------------------------------o||
E||----------------------------------|--------------------------------------||
|
| Gtr III
| W H S S E Q
e||----------------------------------|--------------------3-3----3----------||
B||o---------------------------------|--------------------3-3----3---------o||
G||----------------------------------|--------------------0-0----0----------||
D||----------------------------------|--------------------x-x----x----------||
A||o---------------------------------|--------------------2-2----2---------o||
E||----------------------------------|--------------------3-3----3----------||


[Pre-Verse]

D5 G5/D D G5/D D CsusD/D D5G5/D
E S E S E S S E E S S E S E S E S S E Q
e||--------------------------------|------------------------||
B||o-------------------------------|-----------------------o||
G||--14-14-12-12-11-12p11--7-7-7-7-|-5-5-7-7-2-12p11--7-7---||
D||---0--0--0--0--0--0-(0)-0-0-0-0-|-0-0-0-0-0--0-(0)-0-0---||
A||o-------------------------------|-----------------------o||
E||--------------------------------|------------------------||
|
| W H S S E Q
e||--------------------------------|---------------3--3-3---||
B||o-------------------------------|---------------3--3-3--o||
G||--------------------------------|---------------0--0-0---||
D||--------------------------------|---------------x--x-x---||
A||o-------------------------------|---------------2--2-2--o||
E||--------------------------------|---------------3--3-3---||


[Verse]

D Csus2/D G5/D
PM| PM| PM PM| PM| PM PM| PM| PM PM| PM| PM
S S S S S S S S S S S S S S S S S S S S S S S S S S S S S S S S
e||----------------------------------|--------------------------------------||
B||o---------------------------------|-------------------------------------o||
G||--7-----7-----7---7-----7-----7---|-5-----5-----5---12-----12-----12-----||
D||--0-0-0-0-0-0-0-0-0-0-0-0-0-0-0-0-|-0-0-0-0-0-0-0-0--0-0-0--0-0-0--0-0---||
A||o---------------------------------|-------------------------------------o||
E||----------------------------------|--------------------------------------||


[Interlude]

G5/D5 Bm/DD5 G5/D D
S S S E S E S S S S E E S S S E S E S S E E E
e||----------------------------------------|----------------------------------||
B||o---------------------------------------|---------------------------------o||
G||--12s14--14-14-14-14-14-14-14s16--14-14p|=12--12-12-12-12-12-12p11--7-7-7--||
D||---0-(0)--0--0--0--0--0--0--0-(0)--0--0-|-(0)--0--0--0--0--0--0-(0)-0-0-0--||
A||o---------------------------------------|---------------------------------o||
E||----------------------------------------|----------------------------------||
|
| Gtr III
| W H S S E Q
e||----------------------------------------|------------------------3--3-3----||
B||o---------------------------------------|------------------------3--3-3---o||
G||----------------------------------------|------------------------0--0-0----||
D||----------------------------------------|------------------------x--x-x----||
A||o---------------------------------------|------------------------2--2-2---o||
E||----------------------------------------|------------------------3--3-3----||


[Chorus]

D Csus2/D G5/D
PM| PM| PM PM| PM| PM PM| PM| PM PM| PM| PM
S S S S S S S S S S S S S S S S S S S S S S S S S S S S S S S S 4x
e||----------------------------------|--------------------------------------||
B||o---------------------------------|-------------------------------------o||
G||--7-----7-----7---7-----7-----7---|-5-----5-----5---12-----12-----12-----||
D||--0-0-0-0-0-0-0-0-0-0-0-0-0-0-0-0-|-0-0-0-0-0-0-0-0--0-0-0--0-0-0--0-0---||
A||o---------------------------------|-------------------------------------o||
E||----------------------------------|--------------------------------------||


D Csus2/D G5/D
PM| PM| PM PM| PM| PM PM| PM| PM PM| PM| PM
S S S S S S S S S S S S S S S S S S S S S S S S S S S S S S S S 4x
e||----------------------------------|--------------------------------------||
B||o---------------------------------|-------------------------------------o||
G||--7-----7-----7---7-----7-----7---|-5-----5-----5---12-----12-----12-----||
D||--0-0-0-0-0-0-0-0-0-0-0-0-0-0-0-0-|-0-0-0-0-0-0-0-0--0-0-0--0-0-0--0-0---||
A||o---------------------------------|-------------------------------------o||
E||----------------------------------|--------------------------------------||
|
| Gtr III
| W H S S E Q 4x
e||----------------------------------|--------------------3-3----3----------||
B||o---------------------------------|--------------------3-3----3---------o||
G||----------------------------------|--------------------0-0----0----------||
D||----------------------------------|--------------------x-x----x----------||
A||o---------------------------------|--------------------2-2----2---------o||
E||----------------------------------|--------------------3-3----3----------||


[Main Riff]
C5D5
Gtr I
S E S E S E S E S S S S S E S E S H +S
e|----------------------------|-----------------------|
B|----------------------------|-----------------------|
G|---14---12---11---7---5h7-5h|=7-5---7---2-------(2)-|
D|-0----0----0----0---0-------|-----0---0-------------|
A|----------------------------|-----------------------|
E|----------------------------|-----------------------|
|
| Gtr II
| W H E E Q
e|----------------------------|-----------------------|
B|----------------------------|-----------------------|
G|----------------------------|-------------5S7-7-----|
D|----------------------------|-------------5S7-7-----|
A|----------------------------|-------------3S5-5-----|
E|----------------------------|-----------------------|


S E S E S E S E S S S S S E S E S H +S
e|----------------------------------|-------------------------|
B|----------------------------------|--------------15----(15)-|
G|-----14---12---16---14---12h14-12h|=14-12---14--------------|
D|--0-----0----0----0----0----------|-------0----0------------|
A|----------------------------------|-------------------------|
E|----------------------------------|-------------------------|
|
| Gtr II
| +W W
e|----------------------------------|-------------------------|
B|----------------------------------|-------------------------|
G|-(7)------------------------------|-------------------------|
D|-(7)------------------------------|-------------------------|
A|-(5)------------------------------|-------------------------|
E|----------------------------------|-------------------------|


[Verse]

D5 G5/D D5 G5/D D5 G5/D D5 G5/D D5
Gtrs I, II
S S S S S S S S S S S S Q
e|-----------------------------------------|
B|-----------------------------------------|
G|-14-12-11-14-12-11-14-12-11-14-12-11-14--|
D|--0--0--0--0--0--0--0--0--0--0--0--0--0--|
A|-----------------------------------------|
E|-----------------------------------------|
|
| Gtr III
| W
e|-----------------------------------------|
B|-----------------------------------------|
G|-----------------------------------------|
D|-----------------------------------------|
A|-----------------------------------------|
E|-----------------------------------------|


D5 G5/D D5 G5/D D5 G5/D D5 G5/D D5
S S S S S S S S S S S S Q
e|-----------------------------------------|
B|-----------------------------------------|
G|-14-12-11-14-12-11-14-12-11-14-12-11-14--|
D|--0--0--0--0--0--0--0--0--0--0--0--0--0--|
A|-----------------------------------------|
E|-----------------------------------------|
|
| H S S E Q
e|-----------------------------3--3-----3--|
B|-----------------------------3--3-----3--|
G|-----------------------------0--0-----0--|
D|-----------------------------x--x-----x--|
A|-----------------------------2--2-----2--|
E|-----------------------------3--3-----3--|


[Chorus]

D Csus2/D G5/D
Gtrs I, II
PM| PM| PM PM| PM| PM PM| PM| PM PM| PM| PM
S S S S S S S S S S S S S S S S S S S S S S S S S S S S S S S S 4x
e||----------------------------------|--------------------------------------||
B||o---------------------------------|-------------------------------------o||
G||--7-----7-----7---7-----7-----7---|-5-----5-----5---12-----12-----12-----||
D||--0-0-0-0-0-0-0-0-0-0-0-0-0-0-0-0-|-0-0-0-0-0-0-0-0--0-0-0--0-0-0--0-0---||
A||o---------------------------------|-------------------------------------o||
E||----------------------------------|--------------------------------------||
|
| Gtr III
| W H S S E Q 4x
e||----------------------------------|--------------------3-3----3----------||
B||o---------------------------------|--------------------3-3----3---------o||
G||----------------------------------|--------------------0-0----0----------||
D||----------------------------------|--------------------x-x----x----------||
A||o---------------------------------|--------------------2-2----2---------o||
E||----------------------------------|--------------------3-3----3----------||


[Outro]

G
S E S E S E S E S S S S S E S E S H +S
e|----------------------------|-------------------------|
B|----------------------------|-------------------------|
G|---14---12---11---7---5h7-5h|=7-5---7---2---------(2)-|
D|-0----0----0----0---0-------|-----0---0---------------|
A|----------------------------|-------------------------|
E|----------------------------|-------------------------|
|
| W H S S E Q
e|----------------------------|---------------3-3-3-----|
B|----------------------------|---------------3-3-3-----|
G|----------------------------|---------------0-0-0-----|
D|----------------------------|---------------x-x-x-----|
A|----------------------------|---------------2-2-2-----|
E|----------------------------|---------------3-3-3-----|


H.=H
D5 G5/D D G5/D CsusD/D D5G5/D
E S E S E S S e E S S E S E S E S S E E E
e|-------------------------------|--------------------------|
B|-------------------------------|--------------------------|
G|-14-14-12-12-11-12p11--7-7-7-7-|-5-5-7-7-2-12p11--14-12-7-|
D|--0--0--0--0--0--0-(0)-0-0-0-0-|-0-0-0-0-0--0-(0)--0--0-0-|
A|-------------------------------|--------------------------|
E|-------------------------------|--------------------------|
|
| W H S S E Q
e|-------------------------------|---------------3---3--3---|
B|-------------------------------|---------------3---3--3---|
G|-------------------------------|---------------0---0--0---|
D|-------------------------------|---------------x---x--x---|
A|-------------------------------|---------------2---2--2---|
E|-------------------------------|---------------3---3--3---|


+W W
e|------------------------------|--------------------*|
B|------------------------------|--------------------*|
G|-(7)--------------------------|--------------------*|
D|-(0)--------------------------|--------------------*|
A|------------------------------|--------------------*|
E|------------------------------|--------------------*|
|
| Gtr I
| S E S E S E S E S S S S S E S E S H +S
e|------------------------------|--------------------*|
B|------------------------------|--------------------*|
G|-----14---12---11---7---5h7-5h|=7-5---7---2----(2)-*|
D|--0-----0----0----0---0-------|-----0---0----------*|
A|------------------------------|--------------------*|
E|------------------------------|--------------------*|



************************************

| x Dead note
| (n) Ghost note
| h Hammer-on
| p Pull-off

************************************
Tunning: Standard (E A D G B e)
INTRO W/ Riff 1 then Riff 2

RIFF 1:
|---------|--------------------------|--------------------|
|---------|---10---8---7-------------|--------------------|
|---------|----7---7---7---7---5h7-5h|=7-5---7---2----(2)-|
|---------|-0----0---0---0---0-------|-----0---0----------|
|---------|--------------------------|--------------------|
|---------|--------------------------|--------------------|

Riff 2:
|--------------------------------|-------------------------|
|--------------------------------|--------------15----(15)-|
|---14---12---16---14---12h14-12h|=14-12---14--------------|
|-0----0----0----0----0----------|-------0----0------------|
|--------------------------------|-------------------------|
|--------------------------------|-------------------------|


PRE-VERSE w/ Riff 3

RIFF 3: D5 G5/DD G5DD D CsusD/D D5G5DD
Gtrs I, II
||----------------------------|-----------------------||
||o-10-10-8-8-7-8p=7----------|-----------8p=7-------o||
||---7--7-7-7-7-7--7--7-7-7-7-|-5-5-7-5-7-7--7--7-7---||
||---0--0-0-0-0-0-(0)-0-0-0-0-|-0-0-0-0-0-0-(0)-0-0---||
||o---------------------------|----------------------o||
||----------------------------|-----------------------||
|
| Gtr III
||----------------------------|--------------3--3-3---||
||o---------------------------|--------------3--3-3--o||
||----------------------------|--------------0--0-0---||
||----------------------------|--------------x--x-x---||
||o---------------------------|--------------2--2-2--o||
||----------------------------|--------------3--3-3---||



VERSE (w/ Riff 4 X2)

RIFF 4: D Csus2/D G5/D
PM| PM| PM PM| PM| PM PM| PM| PM PM| PM| PM
||----------------------------------|-----------------------------------||
||o---------------------------------|-----------------8-----8-----8----o||
||--7-----7-----7---7-----7-----7---|-5-----5-----5---7-----7-----7-----||
||--0-0-0-0-0-0-0-0-0-0-0-0-0-0-0-0-|-0-0-0-0-0-0-0-0-0-0-0-0-0-0-0-0---||
||o---------------------------------|----------------------------------o||
||----------------------------------|-----------------------------------||

D
Oh the heads that turn

Csus2/D G5/D
Make my back burn

D
And those heads that turn

Csus2/D G5/D
Make my back - make my back burn


INTERLUDE (w/Riff 5 x2)

RIFF 5: G5/D5 Bm/DD5 G5/D D
||----------------------------------------|----------------------------------||
||o---------------------------------------|---------------------------------o||
||--12s14--14-14-14-14-14-14-14s16--14-14p|=12--12-12-12-12-12-12p11--7-7-7--||
||---0-(0)--0--0--0--0--0--0--0-(0)--0--0-|-(0)--0--0--0--0--0--0-(0)-0-0-0--||
||o---------------------------------------|---------------------------------o||
||----------------------------------------|----------------------------------||
|
| Gtr III
||----------------------------------------|------------------------3--3-3----||
||o---------------------------------------|------------------------3--3-3---o||
||----------------------------------------|------------------------0--0-0----||
||----------------------------------------|------------------------x--x-x----||
||o---------------------------------------|------------------------2--2-2---o||
||----------------------------------------|------------------------3--3-3----||


VERSE 2 (w/ Riff 4 x2)

The sparkle in your eyes
Keeps me alive
And the sparkle in your eyes
Keeps me alive - keeps me alive


CHORUS (w/ Riff 4 x2) (As verse but add Guitar III chord fill)

RIFF 4: D Csus2/D G5/D
PM| PM| PM PM| PM| PM PM| PM| PM PM| PM| PM
||----------------------------------|-----------------------------------||
||o---------------------------------|-----------------8-----8-----8----o||
||--7-----7-----7---7-----7-----7---|-5-----5-----5---7-----7-----7-----||
||--0-0-0-0-0-0-0-0-0-0-0-0-0-0-0-0-|-0-0-0-0-0-0-0-0-0-0-0-0-0-0-0-0---||
||o---------------------------------|----------------------------------o||
||----------------------------------|-----------------------------------||
| | Gtr III
||----------------------------------|-------------------------3--3-3----||
||o---------------------------------|-------------------------3--3-3---o||
||----------------------------------|-------------------------0--0-0----||
||----------------------------------|-------------------------x--x-x----||
||o---------------------------------|-------------------------2--2-2---o||
||----------------------------------|-------------------------3--3-3----||

And the world
And the world turns around
The world and the world yeah yeah
The world drags me down


INTERLUDE (w/Riff 3 x2)


VERSE 3 (w/ Riff 4 x2)

Oh the heads that turn
Make my back burn
And those heads that turn
Make my back - make my back burn yeah yeah


INTERLUDE (w/Riff 5 x2) Yeah yeah he-hey Yeah yeah he-hey


VERSE 4 (w/ Riff 4 x4)

The fire in your eyes
Keeps me alive
And the fire in your eyes
Keeps me alive

I'm sure in her you'll find
The sanctuary
I'm sure in her you'll find
The sanctuary


cHORUS X2

And the world
The world turns around
And the world and the world
The world drags me down

And the world and the world and the world
The world turns around
And the world and the world and the world and the world
The world drags me down


INTRO RIFF


DRUMS AND GUITAR BREAK Yeah yeah he-hey Yeah yeah he-hey

D5 G5/D D5 G5/D D5 G5/D D5 G5/D D5
Gtrs I, II
|-----------------------------------------|-----------------------------------------|
|-----------------------------------------|-----------------------------------------|
|-14-12-11-14-12-11-14-12-11-14-12-11-14--|-14-12-11-14-12-11-14-12-11-14-12-11-14--|
|--0--0--0--0--0--0--0--0--0--0--0--0--0--|--0--0--0--0--0--0--0--0--0--0--0--0--0--|
|-----------------------------------------|-----------------------------------------|
|-----------------------------------------|-----------------------------------------|
|
| Gtr III
|-----------------------------------------|-----------------------------3--3-----3--|
|-----------------------------------------|-----------------------------3--3-----3--|
|-----------------------------------------|-----------------------------0--0-----0--|
|-----------------------------------------|-----------------------------0--0-----0--|
|-----------------------------------------|-----------------------------2--2-----2--|
|-----------------------------------------|-----------------------------3--3-----3--|


CHORUS X2

( Yeah yeah he-hey ) And the world
( Yeah yeah he-hey ) And the world turns around
( Yeah yeah he-hey ) And the world and the world
( Yeah yeah he-hey ) Yeah the world drags me down

( Yeah yeah he-hey ) And the world
( Yeah yeah he-hey ) Yeah the world turns around
( Yeah yeah he-hey ) And the world and the world
( Yeah yeah he-hey ) The world drags me down


OUTRO (W/ riff 3 X2)

Yeah yeah he-hey
Sanctuary Sanctuary


FADE OUT

w/ RIFF1
Song info
She Sells Sanctuary
The Cult
2001
  • Rock
  • Alternative Rock
  • Psychedelic Rock
Alternative tracks
Similar songs
Jeremy - Pearl Jam
My Name Is Mud - Primus
Bulletproof Heart - My Chemical Romance
Rock And Roll Is Dead - Lenny Kravitz

Hi! Hope you enjoy backing track experience.
If you want to help us in the development of the project, feel free to donate!