Pictures Of You - The Cure
00:00 / 00:00
Tabs and lyrics
Tunning: Standard (E A D G B e)
-------------------------------------------------------------------------------
Pictures Of You – The Cure
-------------------------------------------------------------------------------
Tabbed by:lp345
Email:sean_pinkfloyd@yahoo.co.uk
This is my first ever tab, feel free to email me about mistakes etc.
Enjoy the tab!
Check the song for timing etc.

Tuning: Standard

e|---------------------------------------------------------------------------|
B|---------------------------------------------------------------------------|
G|---------------------------------------------------------------------------|\
D|2-222-22-22-777-4-444-44-44-444---x2---------------------------------------| \
A|---------------------------------------------------------------------------| \
E|---------------------------------------------------------------------------| \
X2
e|---------------------------------------------------------------------------| /
B|---------------------------------------------------------------------------| /
G|---------------------------------------------------------------------------| /
D|222-22-00-------------------0-000-00-000----x2-----------------------------|/
A|-----------4-444-44-444-2h4------------------------------------------------|
E|---------------------------------------------------------------------------|

[00:46]
e|---------------------------------------------------------------------------|
B|---------------------------------------------------------------------------|
G|-9-999-99-99-999-7-777-77-77-777-6-666-66-66-777-2-222-22-22-222-4444------|\
D|---------------------------------------------------------------------------| \
A|---------------------------------------------------------------------------| \
E|---------------------------------------------------------------------------| \
X2
e|---------------------------------------------------------------------------| /
B|---------------------------------------------------------------------------| /
G|-4s6-666-66-66-666-7-777-77-77-999-99-77-6-666-66-66-4-6-2-222-22-22-222---| /
D|---------------------------------------------------------------------------|/
A|---------------------------------------------------------------------------|
E|---------------------------------------------------------------------------|

[1:30]
Guitar 1
e|---------------------------------------------------------------------------|
B|---------------------------------------------------------------------------|
G|---------------------------------------------------------------------------|
D|---------------------------------------------------------------------------|
A|-0-2-5-7-0-2-5-------------------------------------------------------------|
E|---------------------------------------------------------------------------|
Guitar 2
e|---------------------------------------------------------------------------|
B|---------------------------------------------------------------------------|
G|---------------------------------------------------------------11-11-11-11-|
D|-9-9999-99-11-11-11-9-99-9-9999-99-11-11-11-9-9999-99-11-11-11-------------|
A|---------------------------------------------------------------------------|
E|---------------------------------------------------------------------------|
Guitar 2(continued)
e|---------------------------------------------------------------------------|
B|---------------------------------------------------------------------------|
G|---------------------------------------------------------------------------|
D|9-999-99-77-7--------------------------------------------------------------|
A|---------------------------------------------------------------------------|
E|---------------------------------------------------------------------------|

[2:15]
e|---------------------------------------------------------------------------|
B|---------------------------------------------------------------------------|
G|---------------------------------------------------------------------------|
D|-9h11-11-11-11-11-11-99-9-99-9h11-11-11-11-11-11-99-9-9h11-11-11-11-11-11--|
A|---------------------------------------------------------------------------|
E|---------------------------------------------------------------------------|

e|---------------------------------------------------------------------------|
B|---------------------------------------------------------------------------|
G|----11-11-11-11------------------------------------------------------------|
D|-99-------------9-9999-99-77-7---------------------------------------------|
A|---------------------------------------------------------------------------|
E|---------------------------------------------------------------------------|

[5:36]
e|--7-5---7-5----------------------------------------------------------------|
B|------5-----5-0-2-0-2-0-2-0-2-0-2------------------------------------------|
G|---------------------------------------------------------------------------|
D|---------------------------------------------------------------------------|
A|---------------------------------------------------------------------------|
E|---------------------------------------------------------------------------|

The part in the verse is the same as Guitar 1 at 1:30
The riff at 2:15 also comes into the verse at 3:00



************************************

| x Dead note
| h Hammer-on

************************************
Tunning: Standard (E A D G B e)
PICTURES OF YOU
As recorded by The Cure
(From the 1989 Album DISINTEGRATION)



A D E Bm7
x 0 2 2 2 0 x x 0 2 3 2 0 2 2 1 0 0 x 2 4 2 3 2

A/C# A/E D/F#
x 4 2 2 5 5 x 7 7 6 5 x x 9 7 7 7 x

[Intro]

Q=86
N.C.
4/4
Gtr I

e||--------------------------------|-------------------------------|
B||o-------------------------------|-------------------------------|
G||--------------------------------|-------------------------------|
D||--2-2-2-2-2-2-(2)-2-2-2s7-7-7-7-|-4-4-4-4-4-4-(4)-4-4-4-4-4-4s2-|
A||o-------------------------------|-------------------------------|
E||--------------------------------|-------------------------------|


e|-------------------------------|-------------------------------|
B|-------------------------------|-------------------------------|
G|-------------------------------|-------------------------------|
D|-2-2-2-2-2-2-(2)-2-2-2s7-7-7-7-|-4-4-4-4-4-4-(4)-4-4-4-4s2-2-2-|
A|-------------------------------|-------------------------------|
E|-------------------------------|-------------------------------|


e|------------------------------|----------------------|
B|------------------------------|----------------------|
G|------------------------------|----------------------|
D|-2-2-0-(0)-0------------------|----------2-(2)-2-2-2-|
A|-------------4-(4)--(4)-4-4-4-|-5----(5)-------------|
E|------------------------------|----------------------|


e|------------------------------|-----------------------||
B|------------------------------|----------------------o||
G|------------------------------|-----------------------||
D|-2-2-0-(0)-0------------------|----------2-(2)-2-2-2--||
A|-------------4-(4)--(4)-4-4-4-|-5----(5)-------------o||
E|------------------------------|-----------------------||


4/4
Gtr I
e||--------------------------------|---------------------------------|
B||o-------------------------------|---------------------------------|
G||--------------------------------|---------------------------------|
D||--2-2-2-2-2-2-(2)-2-2-2s7-7-7-7-|-4-4-4-4-4-4-(4)-4-4-4--4--4-4s2-|
A||o-------------------------------|---------------------------------|
E||--------------------------------|---------------------------------|
|
| Gtr II
e||--------------------------------|---------------------------------|
B||o-------------------------------|---------------------------------|
G||--9-9-9-9-9-9-(9)-9-9-9-9-9-9-9-|-7-7-7-7-7-7-(7)-7-7---(7)-7-7-7-|
D||--------------------------------|---------------------------------|
A||o-------------------------------|---------------------------------|
E||--------------------------------|---------------------------------|


e|-----------------------------------|--------------------------------|
B|-----------------------------------|--------------------------------|
G|-----------------------------------|--------------------------------|
D|-2-2-2-2---2-2-(2)-2-2-2s=7-7-7--7-|-4-4-4-4-4-4-(4)-4-4-4-4s2-2-2--|
A|-----------------------------------|--------------------------------|
E|-----------------------------------|--------------------------------|
|
e|-----------------------------------|--------------------------------|
B|-----------------------------------|--------------------------------|
G|-6-6-6-6-6-6-6-(6)-6-6-6/-7-7-7---|-2-2-2-2-2-2-(2)-2-2-2-4-4-4-4--|
D|-----------------------------------|--------------------------------|
A|-----------------------------------|--------------------------------|
E|-----------------------------------|--------------------------------|


e|-------------------------------------|---------------------------------|
B|-------------------------------------|---------------------------------|
G|-------------------------------------|---------------------------------|
D|-2---2-0-(0)-0-----------------------|---------------------2-(2)2-2-2--|
A|---------------4---(4)-----(4)-4-4-4-|-5-------------(5)---------------|
E|-------------------------------------|---------------------------------|
|
e|-------------------------------------|---------------------------------|
B|-------------------------------------|---------------------------------|
G|-4s6-6-6--6----6-6-(6)-6-6--6--6-6-6-|-7-7-7-7-7-7-7-(7)-7-7--7s9-9-9--|
D|-------------------------------------|---------------------------------|
A|-------------------------------------|---------------------------------|
E|-------------------------------------|---------------------------------|


e|---------------------------------------|-----------------------------------||
B|---------------------------------------|----------------------------------o||
G|---------------------------------------|-----------------------------------||
D|-2---2-0-(0)-0-------------------------|---------------------2-(2)-2-2-2---||
A|---------------4---(4)-------(4)-4-4-4-|-5-------------(5)----------------o||
E|---------------------------------------|-----------------------------------||
|
e|---------------------------------------|-----------------------------------||
B|---------------------------------------|----------------------------------o||
G|-9-9-9-7-(7)-7-6-6--6--6-6-6--6--4-6---|-2-2-2-(2)-2-2-(2)-2-2--2--2-2-2---||
D|---------------------------------------|-----------------------------------||
A|---------------------------------------|----------------------------------o||
E|---------------------------------------|-----------------------------------||


A
Gtr II
e||----------------------------------------|
B||o---------------------------------------|
G||----------------------------------------|
D||--9-9-9-9-(9)-9-9-(9)-11-11-11-11-9-9-9-|
A||o---------------------------------------|
E||----------------------------------------|
|
| Gtr III
e||----------------------------------------|
B||o---------------------------------------|
G||----------------------------------------|
D||----------------------------------------|
A||o-0-----------------------------2-------|
E||----------------------------------------|


D
e|---------------------------------------|
B|---------------------------------------|
G|---------------------------------------|
D|-9-9-9-9-(9)-9-9-(9)-11-11-11-11-9-9-9-|
A|---------------------------------------|
E|---------------------------------------|
|
e|---------------------------------------|
B|---------------------------------------|
G|---------------------------------------|
D|-0-----------------------------2-------|
A|---------------------------------------|
E|---------------------------------------|


A
e|------------------------------------------|
B|------------------------------------------|
G|------------------------------11-11-11-11-|
D|-9-9-9-9-(9)-9-9-(9)-11-11-11-------------|
A|------------------------------------------|
E|------------------------------------------|
|
e|------------------------------------------|
B|------------------------------------------|
G|------------------------------------------|
D|------------------------------------------|
A|-0-----------------------------2----------|
E|------------------------------------------|


1.
D
e|----------------------------------------||
B|---------------------------------------o||
G|----------------------------------------||
D|-9-9-9-9-9-9-9-9-(9)-------------9-9-9--||
A|---------------------12-12-12-12-------o||
E|----------------------------------------||
|
e|----------------------------------------||
B|---------------------------------------o||
G|----------------------------------------||
D|----------------------------------------||
A|---------------------------------------o||
E|-0-----------------------------2--------||


[Verse]

2.
D A
e|-----------------------------------||-----------|
B|-----------------------------------||-----------|
G|-----------------------------------||-----------|
D|-9-9-9-9-9-9-9-9-(9)-7-7-7-7-7-7-7-||-----------|
A|-----------------------------------||-----------|
E|-----------------------------------||-----------|
|
e|-----------------------------------||-----------|
B|-----------------------------------||-----------|
G|-----------------------------------||-----------|
D|---------------------------2-------||-----------|
A|-0---------------------------------||-0------2--|
E|-----------------------------------||-----------|


D A
Gtr III
e|-----------|-----------|
B|-----------|-----------|
G|-----------|-----------|
D|-0------4--|-----------|
A|-----------|-0------2--|
E|-----------|-----------|


D A
e|-----------|-----------|
B|-----------|-----------|
G|-----------|-----------|
D|-----------|-----------|
A|-----------|-0------2--|
E|-0------2--|-----------|


D A
e|-----------|-----------|
B|-----------|-----------|
G|-----------|-----------|
D|-0------4--|-----------|
A|-----------|-0------2--|
E|-----------|-----------|


D A
Gtr II
e|-----------||------------------------------------|
B|-----------||o-5---5-5-5---5-5-(5)-5-3-3-2-2-2-2-|
G|-----------||------------------------------------|
D|-----------||------------------------------------|
A|-----------||o-----------------------------------|
E|-0------2--||------------------------------------|
|
| Gtr I
e|-----------||------------------------------------|
B|-----------||o---2-2-2-2-2-2-2-(2)---------------|
G|-----------||--4-------------------4-4---4-4-4-4-|
D|-----------||------------------------------------|
A|-----------||o-----------------------------------|
E|-----------||------------------------------------|
|
| Gtr III
e|-----------||------------------------------------|
B|-----------||o-----------------------------------|
G|-----------||------------------------------------|
D|-----------||------------------------------------|
A|-----------||o-0-------------------------2-------|
E|-----------||------------------------------------|


D A
e|---------------------------------|---------------------------------|
B|---2-2---2-----2-(2)---2-5-5-5-5-|---2-2---2-----2-(2)---2-5-5-5-5-|
G|-4-----4-----4-------4-----------|-4-----4-----4-------4-----------|
D|---------------------------------|---------------------------------|
A|---------------------------------|---------------------------------|
E|---------------------------------|---------------------------------|
|
e|---------------------------------|---------------------------------|
B|---2-2-2-2-2-2-2-(2)-------------|---2-2-2-2-2-2-2-(2)-------------|
G|-4-------------------4-4-4-4-4-4-|-4-------------------4-4-4-4-4-4-|
D|---------------------------------|---------------------------------|
A|---------------------------------|---------------------------------|
E|---------------------------------|---------------------------------|
|
e|---------------------------------|---------------------------------|
B|---------------------------------|---------------------------------|
G|---------------------------------|---------------------------------|
D|-0-----------------------4-------|---------------------------------|
A|---------------------------------|-0-----------------------2-------|
E|---------------------------------|---------------------------------|


1. 2.
D D
e|-----------------------------------||----------------------------------||
B|---2-2---2---2-(2)---2------------o||---2-2---2---2-(2)---2------------||
G|-4-----4---4-------4-----4/---9-9--||-4-----4---4-------4-----4/---9-9-||
D|-----------------------------------||----------------------------------||
A|----------------------------------o||----------------------------------||
E|-----------------------------------||----------------------------------||
|
e|-----------------------------------||----------------------------------||
B|----------------------------------o||----------------------------------||
G|-4---4-4-4-4-4-(4)-2-2-2-2--2-2-2--||-4---4-4-4-4-4-(4)-2-2-2-2--2-2-2-||
D|-----------------------------------||----------------------------------||
A|----------------------------------o||----------------------------------||
E|-----------------------------------||----------------------------------||
|
e|-----------------------------------||----------------------------------||
B|----------------------------------o||----------------------------------||
G|-----------------------------------||----------------------------------||
D|-0-----------------------4---------||----------------------------------||
A|----------------------------------o||-0-----------------------2--------||
E|-----------------------------------||----------------------------------||


A D A
Gtr III
e|-----------|-----------|-----------|
B|-----------|-----------|-----------|
G|-----------|-----------|-----------|
D|-----------|-0------4--|-----------|
A|-0------2--|-----------|-0------2--|
E|-----------|-----------|-----------|


D A D
e|-----------|-----------|-----------|
B|-----------|-----------|-----------|
G|-----------|-----------|-----------|
D|-----------|-----------|-0------4--|
A|-----------|-0------2--|-----------|
E|-0------2--|-----------|-----------|


A D A
Gtr II
e|-----------|-----------||------------------------------------|
B|-----------|-----------||o-5---5-5-5---5-5-(5)-5-3-3-2-2-2-2-|
G|-----------|-----------||------------------------------------|
D|-----------|-----------||------------------------------------|
A|-0------2--|-----------||o-----------------------------------|
E|-----------|-0------2--||------------------------------------|
|
| Gtr I
e|-----------|-----------||------------------------------------|
B|-----------|-----------||o---2-2-2-2-2-2-2-(2)---------------|
G|-----------|-----------||--4-------------------4-4---4-4-4-4-|
D|-----------|-----------||------------------------------------|
A|-----------|-----------||o-----------------------------------|
E|-----------|-----------||------------------------------------|
|
| Gtr III
e|-----------|-----------||------------------------------------|
B|-----------|-----------||o-----------------------------------|
G|-----------|-----------||------------------------------------|
D|-----------|-----------||------------------------------------|
A|-----------|-----------||o-0-------------------------2-------|
E|-----------|-----------||------------------------------------|


D A
e|---------------------------------|---------------------------------|
B|---2-2---2-----2-(2)---2-5-5-5-5-|---2-2---2-----2-(2)---2-5-5-5-5-|
G|-4-----4-----4-------4-----------|-4-----4-----4-------4-----------|
D|---------------------------------|---------------------------------|
A|---------------------------------|---------------------------------|
E|---------------------------------|---------------------------------|
|
e|---------------------------------|---------------------------------|
B|---2-2-2-2-2-2-2-(2)-------------|---2-2-2-2-2-2-2-(2)-------------|
G|-4-------------------4-4-4-4-4-4-|-4-------------------4-4-4-4-4-4-|
D|---------------------------------|---------------------------------|
A|---------------------------------|---------------------------------|
E|---------------------------------|---------------------------------|
|
e|---------------------------------|---------------------------------|
B|---------------------------------|---------------------------------|
G|---------------------------------|---------------------------------|
D|-0-----------------------4-------|---------------------------------|
A|---------------------------------|-0-----------------------2-------|
E|---------------------------------|---------------------------------|


1. 2.
D D
e|-----------------------------------||----------------------------------||
B|---2-2---2---2-(2)---2------------o||---2-2---2---2-(2)---2------------||
G|-4-----4---4-------4-----4/---9-9--||-4-----4---4-------4-----4/---9-9-||
D|-----------------------------------||----------------------------------||
A|----------------------------------o||----------------------------------||
E|-----------------------------------||----------------------------------||
|
e|-----------------------------------||----------------------------------||
B|----------------------------------o||----------------------------------||
G|-4---4-4-4-4-4-(4)-2-2-2-2--2-2-2--||-4---4-4-4-4-4-(4)-2-2-2-2--2-2-2-||
D|-----------------------------------||----------------------------------||
A|----------------------------------o||----------------------------------||
E|-----------------------------------||----------------------------------||
|
e|-----------------------------------||----------------------------------||
B|----------------------------------o||----------------------------------||
G|-----------------------------------||----------------------------------||
D|-0-----------------------4---------||----------------------------------||
A|----------------------------------o||-0-----------------------2--------||
E|-----------------------------------||----------------------------------||


A D
e||----------------------------------|-----------------------------------|
B||o-5-5-5-5-5---5-5-(5)-5-5-5-5-5-5-|-5s7-7-7-7---7-7-(7)-7-7-7s10-10---|
G||----------------------------------|-----------------------------------|
D||----------------------------------|-----------------------------------|
A||o---------------------------------|-----------------------------------|
E||----------------------------------|-----------------------------------|
|
e||----------------------------------|-----------------------------------|
B||o---2-2-2-2-2-2-2-(2)-------------|---2-2-2-2-2-2-2-(2)---------------|
G||--4-------------------4-4-4-4-4-4-|-4-------------------4-4-4--4--4-4-|
D||----------------------------------|-----------------------------------|
A||o---------------------------------|-----------------------------------|
E||----------------------------------|-----------------------------------|
|
e||----------------------------------|-----------------------------------|
B||o---------------------------------|-----------------------------------|
G||----------------------------------|-----------------------------------|
D||----------------------------------|-0-----------------------4---------|
A||o-0-----------------------2-------|-----------------------------------|
E||----------------------------------|-----------------------------------|


1.
A D
e|---------------------------------|-------------------------------------||
B|-5-5-5-5-5---5-5-(5)-5-5-5-5-5-5-|-5s7-7-7-7-7-7-(7)-7-7s10-10---10s5-o||
G|---------------------------------|-------------------------------------||
D|---------------------------------|-------------------------------------||
A|---------------------------------|------------------------------------o||
E|---------------------------------|-------------------------------------||
|
e|---------------------------------|-------------------------------------||
B|---2-2-2-2-2-2-2-(2)-------------|------------------------------------o||
G|-4-------------------4-4-4-4-4-4-|-4---4-4-4-4-4-(4)-2-2--2--2-2--2-2--||
D|---------------------------------|-------------------------------------||
A|---------------------------------|------------------------------------o||
E|---------------------------------|-------------------------------------||
|
e|---------------------------------|-------------------------------------||
B|---------------------------------|------------------------------------o||
G|---------------------------------|-------------------------------------||
D|---------------------------------|-0-------------------------4---------||
A|-0-----------------------2-------|------------------------------------o||
E|---------------------------------|-------------------------------------||


2.
D A D A
e|------------------------------------|-----------|-----------|------------|
B|-5s7-7-7-7-7-7-(7)-7-7s10-10---10s5-|-----------|-----------|------------|
G|------------------------------------|-----------|-----------|------------|
D|------------------------------------|-----------|-----------|------------|
A|------------------------------------|-----------|-----------|------------|
E|------------------------------------|-----------|-----------|------------|
|
e|------------------------------------|-----------|-----------|------------|
B|------------------------------------|-----------|-----------|------------|
G|-4---4-4-4-4-4-(4)-2-2--2--2-2--2-2-|-----------|-----------|------------|
D|------------------------------------|-----------|-----------|------------|
A|------------------------------------|-----------|-----------|------------|
E|------------------------------------|-----------|-----------|------------|
|
e|------------------------------------|-----------|-----------|------------|
B|------------------------------------|-----------|-----------|------------|
G|------------------------------------|-----------|-----------|------------|
D|------------------------------------|-----------|-0------4--|------------|
A|-0-------------------------2--------|-0------2--|-----------|-0------2---|
E|------------------------------------|-----------|-----------|------------|


D A D
Gtr III
e|-----------|-----------|-----------|
B|-----------|-----------|-----------|
G|-----------|-----------|-----------|
D|-----------|-----------|-0------4--|
A|-----------|-0------2--|-----------|
E|-0------2--|-----------|-----------|


A D A
Gtr II
e|-----------|-----------||-----------------------------------|
B|-----------|-----------||-5---5-5-5---5-5-(5)-5-3-3-2-2-2-2-|
G|-----------|-----------||-----------------------------------|
D|-----------|-----------||-----------------------------------|
A|-0------2--|-----------||-----------------------------------|
E|-----------|-0------2--||-----------------------------------|
|
| Gtr I
e|-----------|-----------||-----------------------------------|
B|-----------|-----------||---2-2-2-2-2-2-2-(2)---------------|
G|-----------|-----------||-4-------------------4-4---4-4-4-4-|
D|-----------|-----------||-----------------------------------|
A|-----------|-----------||-----------------------------------|
E|-----------|-----------||-----------------------------------|
|
| Gtr III
e|-----------|-----------||-----------------------------------|
B|-----------|-----------||-----------------------------------|
G|-----------|-----------||-----------------------------------|
D|-----------|-----------||-----------------------------------|
A|-----------|-----------||-0-------------------------2-------|
E|-----------|-----------||-----------------------------------|


D A
e|---------------------------------|---------------------------------|
B|---2-2---2-----2-(2)---2-5-5-5-5-|---2-2---2-----2-(2)---2-5-5-5-5-|
G|-4-----4-----4-------4-----------|-4-----4-----4-------4-----------|
D|---------------------------------|---------------------------------|
A|---------------------------------|---------------------------------|
E|---------------------------------|---------------------------------|
|
e|---------------------------------|---------------------------------|
B|---2-2-2-2-2-2-2-(2)-------------|---2-2-2-2-2-2-2-(2)-------------|
G|-4-------------------4-4-4-4-4-4-|-4-------------------4-4-4-4-4-4-|
D|---------------------------------|---------------------------------|
A|---------------------------------|---------------------------------|
E|---------------------------------|---------------------------------|
|
e|---------------------------------|---------------------------------|
B|---------------------------------|---------------------------------|
G|---------------------------------|---------------------------------|
D|-0-----------------------4-------|---------------------------------|
A|---------------------------------|-0-----------------------2-------|
E|---------------------------------|---------------------------------|


D A
e|----------------------------------|-----------------------------------|
B|---2-2---2---2-(2)---2------------|-5---5-5-5---5-5-(5)-5-3-3-2-2-2-2-|
G|-4-----4---4-------4-----4/---9-9-|-----------------------------------|
D|----------------------------------|-----------------------------------|
A|----------------------------------|-----------------------------------|
E|----------------------------------|-----------------------------------|
|
e|----------------------------------|-----------------------------------|
B|----------------------------------|---2-2-2-2-2-2-2-(2)---------------|
G|-4---4-4-4-4-4-(4)-2-2-2-2--2-2-2-|-4-------------------4-4---4-4-4-4-|
D|----------------------------------|-----------------------------------|
A|----------------------------------|-----------------------------------|
E|----------------------------------|-----------------------------------|
|
e|----------------------------------|-----------------------------------|
B|----------------------------------|-----------------------------------|
G|----------------------------------|-----------------------------------|
D|-0-----------------------4--------|-----------------------------------|
A|----------------------------------|-0-------------------------2-------|
E|----------------------------------|-----------------------------------|


D A
e|---------------------------------|---------------------------------|
B|---2-2---2-----2-(2)---2-5-5-5-5-|---2-2---2-----2-(2)---2-5-5-5-5-|
G|-4-----4-----4-------4-----------|-4-----4-----4-------4-----------|
D|---------------------------------|---------------------------------|
A|---------------------------------|---------------------------------|
E|---------------------------------|---------------------------------|
|
e|---------------------------------|---------------------------------|
B|---2-2-2-2-2-2-2-(2)-------------|---2-2-2-2-2-2-2-(2)-------------|
G|-4-------------------4-4-4-4-4-4-|-4-------------------4-4-4-4-4-4-|
D|---------------------------------|---------------------------------|
A|---------------------------------|---------------------------------|
E|---------------------------------|---------------------------------|
|
e|---------------------------------|---------------------------------|
B|---------------------------------|---------------------------------|
G|---------------------------------|---------------------------------|
D|-0-----------------------4-------|---------------------------------|
A|---------------------------------|-0-----------------------2-------|
E|---------------------------------|---------------------------------|


D
e|----------------------------------|
B|---2-2---2---2-(2)---2------------|
G|-4-----4---4-------4-----4/---9-9-|
D|----------------------------------|
A|----------------------------------|
E|----------------------------------|
|
e|----------------------------------|
B|----------------------------------|
G|-4---4-4-4-4-4-(4)-2-2-2-2--2-2-2-|
D|----------------------------------|
A|----------------------------------|
E|----------------------------------|
|
e|----------------------------------|
B|----------------------------------|
G|----------------------------------|
D|-0-----------------------4--------|
A|----------------------------------|
E|----------------------------------|


[Chorus]
E D
e|-------------------------------|-------------------------------|
B|-------------------------------|-------------------------------|
G|-4-4-4-4-4-4-4-(4)-4-4-6-6-6-6-|-------------------------------|
D|-------------------------------|-7-7-7-7-7-7-(7)-7-7-7-7-7-7---|
A|-------------------------------|-------------------------------|
E|-------------------------------|-------------------------------|
|
e|-------------------------------|-------------------------------|
B|-------------------------------|-------------------------------|
G|-------------------------------|-------------------------------|
D|-------------------------------|-------------------------------|
A|-------------------------------|-------------------------------|
E|-------------------------------|-------------------------------|
|
e|-------------------------------|-------------------------------|
B|-------------------------------|-------------------------------|
G|-------------------------------|-------------------------------|
D|-------------------------------|-------------------------------|
A|-------------------------------|-------------------------------|
E|-------------------------------|-------------------------------|


E D
e|-------------------------------|-----------------------------|
B|-------------------------------|-----------------------------|
G|-4-4-4-4-4-4-4-(4)-4-4-6-6-6-6-|-----------------------------|
D|-------------------------------|-7-7-7-7-7-7-(7)-7-7-7-7-7-7-|
A|-------------------------------|-----------------------------|
E|-------------------------------|-----------------------------|


E D
e|-------------------------------|-----------------------------|
B|-------------------------------|-----------------------------|
G|-4-4-4-4-4-4-4-(4)-4-4-6-6-6-6-|-----------------------------|
D|-------------------------------|-7-7-7-7-7-7-(7)-7-7-7-7-7-7-|
A|-------------------------------|-----------------------------|
E|-------------------------------|-----------------------------|


E Bm7
e|-------------------------------|---------------------------------||
B|-------------------------------|---------------------------------||
G|-4-4-4-4-4-4-4-(4)-4-4-6-6-6-6-|-7-7-7-7-7-7-7-7-9-9-9-9-9-9-9-9-||
D|-------------------------------|---------------------------------||
A|-------------------------------|---------------------------------||
E|-------------------------------|---------------------------------||


[Verse]
$
A D
e||--7-7-7-5-5-5-----7-7-7-5-5-5-----|----------------------------|
B||o-------------5-5-------------5-5-|-5---------5-(5)------------|
G||----------------------------------|---7-6-6-6-------7-6-6-6-6--|
D||----------------------------------|----------------------------|
A||o---------------------------------|----------------------------|
E||----------------------------------|----------------------------|


To Coda
A D
e|-7-7-7-5-5-5-----7-7-7-5-5-5-----|----------------------------||
B|-------------5-5-------------5-5-|-5---------5-(5)-----------o||
G|---------------------------------|---7-6-6-6-------7-6-6-6-6--||
D|---------------------------------|----------------------------||
A|---------------------------------|---------------------------o||
E|---------------------------------|----------------------------||


A
Gtr II
e|-----------------------------------|
B|-5---5-5-5---5-5-(5)-5-3-3-2-2-2-2-|
G|-----------------------------------|
D|-----------------------------------|
A|-----------------------------------|
E|-----------------------------------|
|
| Gtr I
e|-----------------------------------|
B|---2-2-2-2-2-2-2-(2)---------------|
G|-4-------------------4-4---4-4-4-4-|
D|-----------------------------------|
A|-----------------------------------|
E|-----------------------------------|
|
| Gtr III
e|-----------------------------------|
B|-----------------------------------|
G|-----------------------------------|
D|-----------------------------------|
A|-0-------------------------2-------|
E|-----------------------------------|


D A
e|---------------------------------|----------------------------------|
B|---2-2---2-----2-(2)---2-5-5-5-5-|---2-2---2-----2-(2)---2-5-5-5-5--|
G|-4-----4-----4-------4-----------|-4-----4-----4-------4------------|
D|---------------------------------|----------------------------------|
A|---------------------------------|----------------------------------|
E|---------------------------------|----------------------------------|
|
e|---------------------------------|----------------------------------|
B|---2-2-2-2-2-2-2-(2)-------------|---2-2-2-2-2-2-2-(2)--------------|
G|-4-------------------4-4-4-4-4-4-|-4-------------------4-4-4-4-4-4--|
D|---------------------------------|----------------------------------|
A|---------------------------------|----------------------------------|
E|---------------------------------|----------------------------------|
|
e|---------------------------------|----------------------------------|
B|---------------------------------|----------------------------------|
G|---------------------------------|----------------------------------|
D|-0-----------------------4-------|----------------------------------|
A|---------------------------------|-0-----------------------2--------|
E|---------------------------------|----------------------------------|


D
e|----------------------------------|
B|---2-2---2---2-(2)---2------------|
G|-4-----4---4-------4-----4/---9-9-|
D|----------------------------------|
A|----------------------------------|
E|----------------------------------|
|
e|----------------------------------|
B|----------------------------------|
G|-4---4-4-4-4-4-(4)-2-2-2-2--2-2-2-|
D|----------------------------------|
A|----------------------------------|
E|----------------------------------|
|
e|----------------------------------|
B|----------------------------------|
G|----------------------------------|
D|-0-----------------------4--------|
A|----------------------------------|
E|----------------------------------|


A D
e|-----------------------------------|----------------------------------|
B|-5---5-5-5---5-5-(5)-5-3-3-2-2-2-2-|---2-2---2-----2-(2)---2-5-5-5-5--|
G|-----------------------------------|-4-----4-----4-------4------------|
D|-----------------------------------|----------------------------------|
A|-----------------------------------|----------------------------------|
E|-----------------------------------|----------------------------------|
|
e|-----------------------------------|----------------------------------|
B|---2-2-2-2-2-2-2-(2)---------------|---2-2-2-2-2-2-2-(2)--------------|
G|-4-------------------4-4---4-4-4-4-|-4-------------------4-4-4-4-4-4--|
D|-----------------------------------|----------------------------------|
A|-----------------------------------|----------------------------------|
E|-----------------------------------|----------------------------------|
|
e|-----------------------------------|----------------------------------|
B|-----------------------------------|----------------------------------|
G|-----------------------------------|----------------------------------|
D|-----------------------------------|-0-----------------------4--------|
A|-0-------------------------2-------|----------------------------------|
E|-----------------------------------|----------------------------------|


D.S. al Coda
A D
e|---------------------------------|----------------------------------|
B|---2-2---2-----2-(2)---2-5-5-5-5-|---2-2---2---2-(2)---2------------|
G|-4-----4-----4-------4-----------|-4-----4---4-------4-----4/---9-9-|
D|---------------------------------|----------------------------------|
A|---------------------------------|----------------------------------|
E|---------------------------------|----------------------------------|
|
e|---------------------------------|----------------------------------|
B|---2-2-2-2-2-2-2-(2)-------------|----------------------------------|
G|-4-------------------4-4-4-4-4-4-|-4---4-4-4-4-4-(4)-2-2-2-2--2-2-2-|
D|---------------------------------|----------------------------------|
A|---------------------------------|----------------------------------|
E|---------------------------------|----------------------------------|
|
e|---------------------------------|----------------------------------|
B|---------------------------------|----------------------------------|
G|---------------------------------|----------------------------------|
D|---------------------------------|----------------------------------|
A|-0-----------------------2-------|-0-----------------------2--------|
E|---------------------------------|----------------------------------|


&
A Bm7
e|---------------------------|-----------------------------------------|
B|---------------------------|-----------------------------------------|
G|-9-9-9-9-9-9-(9)-9-9-9-9-9-|-9-11-11-11-11-11-(11)-11-11-11s14-14-14-|
D|---------------------------|-----------------------------------------|
A|---------------------------|-----------------------------------------|
E|---------------------------|-----------------------------------------|


A/C# D
e|----------------------------|-----------------------------------------|
B|----------------------------|-----------------------------------------|
G|-14s9-9-9-9-(9)-9-9-9-9-9-9-|-9s11-11-11-11-11-(11)-11-11-11-11-14-14-|
D|----------------------------|-----------------------------------------|
A|----------------------------|-----------------------------------------|
E|----------------------------|-----------------------------------------|


A/C# D
e|----------------------------|-----------------------------------|
B|----------------------------|-----------------------------------|
G|-14s9-9-9-9-9-(9)-7-6-6-6s9-|-9-11-11-11-11-(11)-11-11-11-14-14-|
D|----------------------------|-----------------------------------|
A|----------------------------|-----------------------------------|
E|----------------------------|-----------------------------------|


A/E D/F#
e|---------------------------|-----------------------------------||
B|---------------------------|-----------------------------------||
G|-14-9-9-9-9-(9)-9-9-9-6-6-|-6-7-9-9-9-9-9-9-(9)-9-9-9-9-9-9-9-||
D|---------------------------|-----------------------------------||
A|---------------------------|-----------------------------------||
E|---------------------------|-----------------------------------||


[Interlude]

A Bm7
e|---------------------------|-----------------------------------------|
B|---------------------------|-----------------------------------------|
G|-9-9-9-9-9-9-(9)-9-9-9-9-9-|-9-11-11-11-11-11-(11)-11-11-11s14-14-14-|
D|---------------------------|-----------------------------------------|
A|---------------------------|-----------------------------------------|
E|---------------------------|-----------------------------------------|
|
| Gtr IV
e|---------------------------|-7----------------------------5----------|
B|---------------------------|-----------------------------------------|
G|-6-------------------4-----|-----------------------------------------|
D|---------------------------|-----------------------------------------|
A|---------------------------|-----------------------------------------|
E|---------------------------|-----------------------------------------|
|
| Gtr III
e|---------------------------|-----------------------------------------|
B|---------------------------|-----------------------------------------|
G|---------------------------|-----------------------------------------|
D|---------------------------|-0----------------------------4----------|
A|-0-------------------2-----|-----------------------------------------|
E|---------------------------|-----------------------------------------|


A/C# D
e|----------------------------|-----------------------------------------|
B|----------------------------|-----------------------------------------|
G|-14s9-9-9-9-(9)-9-9-9-9-9-9-|-9s11-11-11-11-11-(11)-11-11-11-11-14-14-|
D|----------------------------|-----------------------------------------|
A|----------------------------|-----------------------------------------|
E|----------------------------|-----------------------------------------|
|
e|----------------------------|-----------------------------------------|
B|--5-------------------------|-----------------------------------------|
G|--------------------7-------|---------------------------------4-------|
D|----------------------------|-7---------------------------------------|
A|----------------------------|-----------------------------------------|
E|----------------------------|-----------------------------------------|
|
e|----------------------------|-----------------------------------------|
B|----------------------------|-----------------------------------------|
G|----------------------------|-----------------------------------------|
D|----------------------------|-0-------------------------------4-------|
A|--0-----------------2-------|-----------------------------------------|
E|----------------------------|-----------------------------------------|


A/C# D
e|----------------------------|-----------------------------------|
B|----------------------------|-----------------------------------|
G|-14s9-9-9-9-9-(9)-7-6-6-6s9-|-9-11-11-11-11-(11)-11-11-11-14-14-|
D|----------------------------|-----------------------------------|
A|----------------------------|-----------------------------------|
E|----------------------------|-----------------------------------|
|
e|----------------------------|---------------------------5-------|
B|----------------------------|-7---------------------------------|
G|--6-------------------4-----|-----------------------------------|
D|----------------------------|-----------------------------------|
A|----------------------------|-----------------------------------|
E|----------------------------|-----------------------------------|
|
e|----------------------------|-----------------------------------|
B|----------------------------|-----------------------------------|
G|----------------------------|-----------------------------------|
D|----------------------------|-0-------------------------4-------|
A|--0-------------------2-----|-----------------------------------|
E|----------------------------|-----------------------------------|


A/E D/F#
e|---------------------------|-----------------------------------||
B|---------------------------|-----------------------------------||
G|-14-9-9-9-9-(9)-9-9-9-6-6-|-6-7-9-9-9-9-9-9-(9)-9-9-9-9-9-9-9-||
D|---------------------------|-----------------------------------||
A|---------------------------|-----------------------------------||
E|---------------------------|-----------------------------------||
|
e|---------------------------|-----------------------------------||
B|--5------------------------|-----------------------------------||
G|--------------------7------|-----------------------------------||
D|---------------------------|-7---------------------------------||
A|---------------------------|-----------------------------------||
E|---------------------------|-----------------------------------||
|
e|---------------------------|-----------------------------------||
B|---------------------------|-----------------------------------||
G|---------------------------|-----------------------------------||
D|---------------------------|-----------------------------------||
A|--0-----------------2------|-0-------------------------2-------||
E|---------------------------|-----------------------------------||


A Bm7
e|-----------------------|-----------------------|
B|-----------------------|-----------------------|
G|-9-9-9-9-9-9-9-7-6-6-6-|-9-9-9-9-9-9-9-7-6-6-6-|
D|-----------------------|-----------------------|
A|-----------------------|-----------------------|
E|-----------------------|-----------------------|
|
e|-----------------------|-7-----------------5---|
B|-----------------------|-----------------------|
G|-6-----------------4---|-----------------------|
D|-----------------------|-----------------------|
A|-----------------------|-----------------------|
E|-----------------------|-----------------------|
|
e|-----------------------|-----------------------|
B|-----------------------|-----------------------|
G|-----------------------|-----------------------|
D|-----------------------|-0-----------------4---|
A|-0-----------------2---|-----------------------|
E|-----------------------|-----------------------|


A/C# D
e|-----------------------|---------------------------|
B|-----------------------|---------------------------|
G|-9-9-9-9-9-9-9-7-6-6-7-|---------------------------|
D|-----------------------|-7-7-7-7-7-7-(7)-7-7-9-9-9-|
A|-----------------------|---------------------------|
E|-----------------------|---------------------------|
|
e|-----------------------|---------------------------|
B|-5---------------------|---------------------------|
G|-------------------7---|---------------------4-----|
D|-----------------------|-7-------------------------|
A|-----------------------|---------------------------|
E|-----------------------|---------------------------|
|
e|-----------------------|---------------------------|
B|-----------------------|---------------------------|
G|-----------------------|---------------------------|
D|-----------------------|-0-------------------4-----|
A|-0-----------------2---|---------------------------|
E|-----------------------|---------------------------|


A/C# D
e|---------------------------|---------------------------|
B|---------------------------|---------------------------|
G|---------------6-6-6-------|-----6-(6)---9---6---9---6-|
D|-9-9-9-9-9-(9)-------9-9-9-|-9-9-------9---9---9---9---|
A|---------------------------|---------------------------|
E|---------------------------|---------------------------|
|
e|---------------------------|---------------------5-----|
B|---------------------------|-7-------------------------|
G|-6-----------------4-------|---------------------------|
D|---------------------------|---------------------------|
A|---------------------------|---------------------------|
E|---------------------------|---------------------------|
|
e|---------------------------|---------------------------|
B|---------------------------|---------------------------|
G|---------------------------|---------------------------|
D|---------------------------|-0-------------------4-----|
A|-0-----------------2-------|---------------------------|
E|---------------------------|---------------------------|


A/E D/F#
e|-----------------------------|---------------------------------|
B|-----------------------------|---------------------------------|
G|-(6)---6---6---6---6-(6)---6-|-7-7-7-7-7-7-7-(7)-9-9-9-9-9-9-9-|
D|-----9---9---9---9-------9---|---------------------------------|
A|-----------------------------|---------------------------------|
E|-----------------------------|---------------------------------|
|
e|-----------------------------|---------------------------------|
B|--5--------------------------|---------------------------------|
G|----------------------7------|---------------------------------|
D|-----------------------------|-7-------------------------------|
A|-----------------------------|---------------------------------|
E|-----------------------------|---------------------------------|
|
e|-----------------------------|---------------------------------|
B|-----------------------------|---------------------------------|
G|-----------------------------|---------------------------------|
D|-----------------------------|---------------------------------|
A|--0-------------------2------|-0-----------------------2-------|
E|-----------------------------|---------------------------------|


[Outro]
A
e|---------------------------------------------------|
B|---------------------------------------------------|
G|-14-14-14-14-14-14-14-14-13-13-13-13-(13)-13-13-13-|
D|---------------------------------------------------|
A|---------------------------------------------------|
E|---------------------------------------------------|
|
e|---------------------------------------------------|
B|---------------------------------------------------|
G|--6------------------------------------------------|
D|---------------------------------------------------|
A|---------------------------------------------------|
E|---------------------------------------------------|


e|-----------------------------------------------|
B|-----------------------------------------------|
G|-14--14-14-14-(14)-14-14-14-9-9-9-9-(9)-9-9-9--|
D|-----------------------------------------------|
A|-----------------------------------------------|
E|-----------------------------------------------|
|
e|-----------------------------------------------|
B|-----------------------------------------------|
G|-(6)-------------------------------------------|
D|-----------------------------------------------|
A|-----------------------------------------------|
E|-----------------------------------------------|


e|--------------------------|---------------------------|------------*|
B|--------------------------|---------------------------|------------*|
G|--9--7-6-6-6-9-(9)-7-6-6--|--9--7-6-6-6-9-9-7-6-6-6-6-|--4---------*|
D|--------------------------|---------------------------|------------*|
A|--------------------------|---------------------------|------------*|
E|--------------------------|---------------------------|------------*|
|
e|--------------------------|---------------------------|------------*|
B|--------------------------|---------------------------|------------*|
G|-(6)----------------------|-(6)-----------------------|-(6)--------*|
D|--------------------------|---------------------------|------------*|
A|--------------------------|---------------------------|------------*|
E|--------------------------|---------------------------|------------*|



************************************

| (n) Ghost note
| s Slide
| / Slide up
| * Natural harmonic
| o reprise

************************************
Song info
Pictures Of You
The Cure
2001
  • Rock
  • Alternative Rock
  • Indie Rock
  • Pop Rock
  • Shoegaze
Alternative tracks
Similar songs
Girlfriend - Matthew Sweet
Shes A Woman - Jeff Beck
Prime Time - The Alan Parsons Project
Bollicine - Vasco Rossi

Hi! Hope you enjoy backing track experience.
If you want to help us in the development of the project, feel free to donate!