Get Your Hands Off My Woman - The Darkness
00:00 / 00:00
Tabs and lyrics
Tunning: Standard (E A D G B e)
-------------------------------------------------------------------------------
Get Your Hands Off My Woman - The Darkness
-------------------------------------------------------------------------------

Tabbed by: Robbie Cook
Email: cookandhisguitar@msn.com

Tuning: Standard

I've updated these tabs and made them more accurate. Again, any comments,
suggestions or corrections are very welcome. Also please rate it what you think
it deserves, it won't take as much effort as I've put in to this.


Notation
B = Bend
\ = Slide down
r = Pull off
Intro

Let the first 2 chords ring.

e|---1----0------------------------------------------------------------------|
B|---3----3------------------------------------------------------------------|
G|---2----2------------------------------------------------------------------|
D|---0----0------------------------------------------------------------------|
A|---------------------------------------------------------------------------|
E|---------------------------------------------------------------------------|




e|---------------------------------------------------------------------------|
B|---------------------------------------------------------------------------|
G|---7--7-----------------5--5-----------------------------------------------|
D|---7--7---8--8---3--3---5--5---5--5---3--3---------------------------------|
A|---5--5---8--8---3--3---3--3---5--5---3--3---------------------------------|
E|----------6--6---1--1----------3--3---1--1---------------------------------|

e|---------------------------------------------------------------------------|
B|---------------------------------------------------------------------------|
G|---7--7----------------5--5---5-----5--------------------------------------|
D|---7--7--8--8---3--3---5--5---5--5--5--------------------------------------|
A|---5--5--8--8---3--3---3--3---3--5--3--------------------------------------|
E|---------6--6---1--1-------------3-----------------------------------------|


e|---------------------------------------------------------------------------|
B|---------------------------------------------------------------------------|
G|---7--7-----------------5--5-----------------------------------------------|
D|---7--7---8--8---3--3---5--5---5--5---3--3---------------------------------|
A|---5--5---8--8---3--3---3--3---5--5---3--3---------------------------------|
E|----------6--6---1--1----------3--3---1--1---------------------------------|

e|---------------------------------------------------------------------------|
B|---------------------------------------------------------------------------|
G|---7--7----------------5--5---5--5--5--------------------------------------|
D|---7--7--8--8---3--3---5--5---5--5--5--------------------------------------|
A|---5--5--8--8---3--3---3--3---3--3--3--------------------------------------|
E|---------6--6---1--1-------------------------------------------------------|





Verse 1
The octave notes arn't played at a constant speed but there is a pattern so
listen carefully for it.

e|---------------------------------------------------------------------------|
B|---------------------------------------------------------------------------|
G|---7--7--7--7--7--7--7--7--7--7--------------------------------------------|
D|----------------------------------3--5-5--3--------------------------------|
A|---5--5--5--5--5--5--5--5--5--5---3--5-5--3--------------------------------|
E|----------------------------------1--3-3--1--------------------------------|

e|---------------------------------------------------------------------------|
B|---------------------------------------------------------------------------|
G|---7--7--7--7--7--7--7--7--7--7--------------------------------------------|
D|----------------------------------3--5-5--3--------------------------------|
A|---5--5--5--5--5--5--5--5--5--5---3--5-5--3--------------------------------|
E|----------------------------------1--3-3--1--------------------------------|





Pre chorus

e|---------------------------------------------------------------------------|
B|---------------------------------------------------------------------------|
G|---------------------------------------------------------------------------|
D|---3--5--5--3--5-----------------------------------------------------------|
A|---3--5--5--3--5-----------------------------------------------------------|
E|---1--3--3--1--3-----------------------------------------------------------|

e|---------------------------------------------------------------------------|
B|---------------------------------------------------------------------------|
G|---------------------------------------------------------------------------|
D|---3--5--5--3--5-----------------------------------------------------------|
A|---3--5--5--3--5-----------------------------------------------------------|
E|---1--3--3--1--3-----------------------------------------------------------|


You've got to listen carefully for this bit, it's right before the chorus where
Justin starts shouting "you cuuuuuunnnt!"

e|---2--2--2--2--2-----------------------------------------------------------|
B|---3--3--3--3--3-----------------------------------------------------------|
G|---2--2--2--2--2-----------------------------------------------------------|
D|---0--0--0--0--0-----------------------------------------------------------|
A|---------------------------------------------------------------------------|
E|-------------------14\-----------------------------------------------------|


e|---------------------------------------------------------------------------|
B|---------------------------------------------------------------------------|
G|---------------------------------------------------------------------------|
D|---2--3--4--5--6--7--8--9--11----------------------------------------------|
A|---2--3--4--5--6--7--8--9--11----------------------------------------------|
E|---0--1--2--3--4--5--6--7--9-----------------------------------------------|



Chorus


e|---------------------------------------------------------------------------|
B|---------------------------------------------------------------------------|
G|---7--7-----------------5--5-----------------------------------------------|
D|---7--7---8--8---3--3---5--5---5--5---3--3---------------------------------|
A|---5--5---8--8---3--3---3--3---5--5---3--3---------------------------------|
E|----------6--6---1--1----------3--3---1--1---------------------------------|

e|---------------------------------------------------------------------------|
B|---------------------------------------------------------------------------|
G|---7--7----------------5--5---5-----5--------------------------------------|
D|---7--7--8--8---3--3---5--5---5--5--5--------------------------------------|
A|---5--5--8--8---3--3---3--3---3--5--3--------------------------------------|
E|---------6--6---1--1-------------3-----------------------------------------|


e|---------------------------------------------------------------------------|
B|---------------------------------------------------------------------------|
G|---7--7-----------------5--5-----------------------------------------------|
D|---7--7---8--8---3--3---5--5---5--5---3--3---------------------------------|
A|---5--5---8--8---3--3---3--3---5--5---3--3---------------------------------|
E|----------6--6---1--1----------3--3---1--1---------------------------------|

e|---------------------------------------------------------------------------|
B|---------------------------------------------------------------------------|
G|---7--7----------------5--5---5--5--5--------------------------------------|
D|---7--7--8--8---3--3---5--5---5--5--5--------------------------------------|
A|---5--5--8--8---3--3---3--3---3--3--3--------------------------------------|
E|---------6--6---1--1-------------------------------------------------------|




Verse 2
Has a variation to it compared to verse 1


e|---------------------------------------------------------------------------|
B|---------------------------------------------------------------------------|
G|---7--7--7--7--7--7--7--7--7--7---10--12--12--10---------------------------|
D|----------------------------------10--12--12--10---------------------------|
A|---5--5--5--5--5--5--5--5--5--5---8---10--10--8----------------------------|
E|---------------------------------------------------------------------------|


The 6th, 7th and 8th notes are quick to follow each other on the first
line of powerchords below so an extra D5 powerchord is added so listen closely.
Also use light and I mean LIGHT, palm muting for the D5 powerchords.

e|---------------------------------------------------------------------------|
B|---------------------------------------------------------------------------|
G|---7--7--7--7--7--7--7--7--7--7--7----10--12--12--10-----------------------|
D|---7--7--7--7--7--7--7--7--7--7--7----10--12--12--10-----------------------|
A|---5--5--5--5--5--5--5--5--5--5--5----8---10--10--8------------------------|
E|---------------------------------------------------------------------------|


e|---------------------------------------------------------------------------|
B|---------------------------------------------------------------------------|
G|---7--7--7--7--7--7--7--7--7--7-------10--12--12--10-----------------------|
D|---7--7--7--7--7--7--7--7--7--7-------10--12--12--10-----------------------|
A|---5--5--5--5--5--5--5--5--5--5-------8---10--10--8------------------------|
E|---------------------------------------------------------------------------|



Pre chorus 2
A very slight variation to the first.

e|---------------------------------------------------------------------------|
B|---------------------------------------------------------------------------|
G|---------------------------------------------------------------------------|
D|---5--5--3--5--------------------------------------------------------------|
A|---5--5--3--5--------------------------------------------------------------|
E|---3--3--1--3--------------------------------------------------------------|

e|---------------------------------------------------------------------------|
B|---------------------------------------------------------------------------|
G|---------------------------------------------------------------------------|
D|---3--5--5--3--5-----------------------------------------------------------|
A|---3--5--5--3--5-----------------------------------------------------------|
E|---1--3--3--1--3-----------------------------------------------------------|

e|---2--2--2--2--2-----------------------------------------------------------|
B|---3--3--3--3--3-----------------------------------------------------------|
G|---2--2--2--2--2-----------------------------------------------------------|
D|---0--0--0--0--0-----------------------------------------------------------|
A|---------------------------------------------------------------------------|
E|-------------------14\-----------------------------------------------------|

e|---------------------------------------------------------------------------|
B|---------------------------------------------------------------------------|
G|---------------------------------------------------------------------------|
D|---2--3--4--5--6--7--8--9--11----------------------------------------------|
A|---2--3--4--5--6--7--8--9--11----------------------------------------------|
E|---0--1--2--3--4--5--6--7--9-----------------------------------------------|




Chorus 2

e|---------------------------------------------------------------------------|
B|---------------------------------------------------------------------------|
G|---7--7-----------------5--5-----------------------------------------------|
D|---7--7---8--8---3--3---5--5---5--5---3--3---------------------------------|
A|---5--5---8--8---3--3---3--3---5--5---3--3---------------------------------|
E|----------6--6---1--1----------3--3---1--1---------------------------------|

e|---------------------------------------------------------------------------|
B|---------------------------------------------------------------------------|
G|---7--7----------------5--5---5-----5--------------------------------------|
D|---7--7--8--8---3--3---5--5---5--5--5--------------------------------------|
A|---5--5--8--8---3--3---3--3---3--5--3--------------------------------------|
E|---------6--6---1--1-------------3-----------------------------------------|


e|---------------------------------------------------------------------------|
B|---------------------------------------------------------------------------|
G|---7--7-----------------5--5-----------------------------------------------|
D|---7--7---8--8---3--3---5--5---5--5---3--3---------------------------------|
A|---5--5---8--8---3--3---3--3---5--5---3--3---------------------------------|
E|----------6--6---1--1----------3--3---1--1---------------------------------|

e|---------------------------------------------------------------------------|
B|---------------------------------------------------------------------------|
G|---7--7----------------5--5---5--5--5--------------------------------------|
D|---7--7--8--8---3--3---5--5---5--5--5--------------------------------------|
A|---5--5--8--8---3--3---3--3---3--3--3--------------------------------------|
E|---------6--6---1--1-------------------------------------------------------|




Bridge

e|---1-----------------------------------------------------------------------|
B|---3-----------------------------------------------------------------------|
G|---2-----------------------------------------------------------------------|
D|---0-----------------------------------------------------------------------|
A|---------------------------------------------------------------------------|
E|---------------------------------------------------------------------------|


This next bit is a unison bend which uses the same effect as the intro, bend
the G up the the A (the 8th up to the tenth note) on the B string and keep
slowly letting it back again.


e|---5-----------------------------------------------------------------------|
B|---8B10--------------------------------------------------------------------|
G|---------------------------------------------------------------------------|
D|---------------------------------------------------------------------------|
A|---------------------------------------------------------------------------|
E|---------------------------------------------------------------------------|



Solo

e|---------------------------------------------------------------------------|
B|---------------------------------------------------------------------------|
G|---3r0-----3r0--3r0-----3r0--3r0-----3r0-----3r0--3r0-----3r0--3r0---------|
D|--------0------------0------------0-------0------------0------------0------|
A|---------------------------------------------------------------------------|
E|---------------------------------------------------------------------------|

e|---------------------------------------------------------------------------|
B|---------------------------------------------------------------------------|
G|---4r0-----4r0--4r0-----4r0--4r0-----4r0-----4r0--4r0-----4r0--4r0---------|
D|--------0------------0------------0-------0------------0------------0------|
A|---------------------------------------------------------------------------|
E|---------------------------------------------------------------------------|

unison bends
e|------------3--------------------------------------------------------------|
B|---3-----3-----3---------------3-------------------------------------------|
G|---5B7------------5---3---5----5B7-----------------------------------------|
D|---------------------------------------------------------------------------|
A|---------------------------------------------------------------------------|
E|---------------------------------------------------------------------------|

e|---------------------------------------------------------------------------|
B|---5-----6------7------8-------9-----------10--12--13---15-----------------|
G|---7B9---8B10---9B11---10B12---11B13---12---------------17B19--------------|
D|---------------------------------------------------------------------------|
A|---------------------------------------------------------------------------|
E|---------------------------------------------------------------------------|



Final Chorus and Outro

e|---------------------------------------------------------------------------|
B|---------------------------------------------------------------------------|
G|---7--7-----------------5--5-----------------------------------------------|
D|---7--7---8--8---3--3---5--5---5--5---3--3---------------------------------|
A|---5--5---8--8---3--3---3--3---5--5---3--3---------------------------------|
E|----------6--6---1--1----------3--3---1--1---------------------------------|

e|---------------------------------------------------------------------------|
B|---------------------------------------------------------------------------|
G|---7--7----------------5--5---5-----5--------------------------------------|
D|---7--7--8--8---3--3---5--5---5--5--5--------------------------------------|
A|---5--5--8--8---3--3---3--3---3--5--3--------------------------------------|
E|---------6--6---1--1-------------3-----------------------------------------|

e|---------------------------------------------------------------------------|
B|---------------------------------------------------------------------------|
G|---7--7-----------------5--5-----------------------------------------------|
D|---7--7---8--8---3--3---5--5---5--5---3--3---------------------------------|
A|---5--5---8--8---3--3---3--3---5--5---3--3---------------------------------|
E|----------6--6---1--1----------3--3---1--1---------------------------------|

e|---------------------------------------------------------------------------|
B|---------------------------------------------------------------------------|
G|---7--7----------------5--5---5--5--5--------------------------------------|
D|---7--7--8--8---3--3---5--5---5--5--5--------------------------------------|
A|---5--5--8--8---3--3---3--3---3--3--3--------------------------------------|
E|---------6--6---1--1-------------------------------------------------------|



e|---------------------------------------------------------------------------|
B|---------------------------------------------------------------------------|
G|---7--7-----------------5--5-----------------------------------------------|
D|---7--7---8--8---3--3---5--5---5--5---3--3---------------------------------|
A|---5--5---8--8---3--3---3--3---5--5---3--3---------------------------------|
E|----------6--6---1--1----------3--3---1--1---------------------------------|

e|---------------------------------------------------------------------------|
B|---------------------------------------------------------------------------|
G|---7--7----------------5--5---5-----5--------------------------------------|
D|---7--7--8--8---3--3---5--5---5--5--5--------------------------------------|
A|---5--5--8--8---3--3---3--3---3--5--3--------------------------------------|
E|---------6--6---1--1-------------3-----------------------------------------|

e|---------------------------------------------------------------------------|
B|---------------------------------------------------------------------------|
G|---7--7-----------------5--5-----------------------------------------------|
D|---7--7---8--8---3--3---5--5---5\------------------------------------------|
A|---5--5---8--8---3--3---3--3---5\------------------------------------------|
E|----------6--6---1--1----------3\------------------------------------------|
Tunning: Standard (E A D G B e)
tuning low to high - e, a, d, g, b, e

intro/bit before solo - dont know the effect but i find hitting
the body of the guitar whilst bending the strings sounds close

|------------|
|------------|
|-7~~~~5~~~~-|
|-7~~~~5~~~~-|
|-5~~~~3~~~~-|
|------------|

|----------------------------------------------------|
|----------------------------------------------------|
|-7-7---------5-5-5---------7-7---------5-5--5-------|
|-7-7-8-8\3-3-5-5-5-5-5\3-3-7-7-8-8\3-3-5-5--5-------| x2
|-5-5-8-8\3-3-3-3-3-5-5\3-3-5-5-8-8\3-3-3-3--3-0-3-4-|
|-----6-6\1-1-------3-3\1-1-----6-6\1-1--------------|

verse 1
|-----------------------------------------------------------------|
|-----------------------------------------------------------------|
|-7-7-7-7-7-7-7-7-7-7-7-7-7-7-7-7-7-7-7-7-7-7-7-7-7-7-7-----------|
|-------------------------------------------------------3-5-5-3-3-|
|-5-5-5-5-5-5-5-5-5-5-5-5-5-5-5-5-5-5-5-5-5-5-5-5-5-5-5-3-5-5-3-3-| x2
|-------------------------------------------------------1-3-3-1-1-|

bridge
|----------------------------------3-3-3-3-3-3-3-3-3-3-3-3-3-3-3-3-|
|----------------------------------3-3-3-3-3-3-3-3-3-3-3-3-3-3-3-3-|
|----------------------------------4-4-4-4-4-4-4-4-4-4-4-4-4-4-4-4-|
|-5-5-3-5\-------3-5-5-3-5\--------5-5-5-5-5-5-5-5-5-5-5-5-5-5-5-5-|
|-5-5-3-5\-------3-5-5-3-5\--------5-5-5-5-5-5-5-5-5-5-5-5-5-5-5-5-|
|-3-3-1-3\-------1-3-3-1-3\--------3-3-3-3-3-3-3-3-3-3-3-3-3-3-3-3-|

|----------------------------|
|----------------------------|
|----------------------------|
|-2-2--3-3--4-4--5-5-6-7-8-9-|
|-2-2--3-3--4-4--5-5-6-7-8-9-|
|-0-0--1-1--2-2--3-3-4-5-6-7-|

chorus
|----------------------------------------------------|
|----------------------------------------------------|
|-7-7---------5-5-5---------7-7---------5-5--5-------|
|-7-7-8-8\3-3-5-5-5-5-5\3-3-7-7-8-8\3-3-5-5--5-------|
|-5-5-8-8\3-3-3-3-3-5-5\3-3-5-5-8-8\3-3-3-3--3-0-3-4-|
|-----6-6\1-1-------3-3\1-1-----6-6\1-1--------------|

middle section
|---------| |----------------|
|---------| |----------------|
|-7-7-7-7-| |-10-12-12-10-10-|
|---------| x8 |-10-12-12-10-10-|
|-5-5-5-5-| |--8-10-10--8--8-|
|---------| |----------------|

verse 2
|-----------------|----------------|
|-----------------|----------------|
|-7--7--7-7----7--|-10-12-12-10-10-|
|-7--7--7-7----7--|-10-12-12-10-10-|
|-555555555555555-|--8-10-10--8--8-|
|-----------------|----------------|
p.m. ^^ ^^ ^ ^^^^ ^

bridge
|----------------------------------------3333333333333333----------|
|----------------------------------------3333333333333333----------|
|----------------------------------------4444444444444444----------|
|-5-5-3-5\-------3-5-5-3-5\--------------5555555555555555----------|
|-5-5-3-5\-------3-5-5-3-5\--------------5555555555555555------3---|
|-3-3-1-3\-------1-3-3-1-3\--------------3333333333333333----------|

|----------------------------|
|----------------------------|
|----------------------------|
|-2-2--3-3--4-4--5-5-6-7-8-9-|
|-2-2--3-3--4-4--5-5-6-7-8-9-|
|-0-0--1-1--2-2--3-3-4-5-6-7-|

chorus
|----------------------------------------------------|
|----------------------------------------------------|
|-7-7---------5-5-5---------7-7---------5-5--5-------|
|-7-7-8-8\3-3-5-5-5-5-5\3-3-7-7-8-8\3-3-5-5--5-------|
|-5-5-8-8\3-3-3-3-3-5-5\3-3-5-5-8-8\3-3-3-3--3-0-3-4-|
|-----6-6\1-1-------3-3\1-1-----6-6\1-1--------------|

solo
|-------------------------------------------------|
|-------------------------------------------------|
|-3h0-----3h0-----3h0-----3h0-----3h0-----3h0-----|
|-----3h0-----3h0-----3h0-----3h0-----3h0-----3h0-|
|-------------------------------------------------|
|-------------------------------------------------|

|-------------------------------------------------|
|-------------------------------------------------|
|-4h0-----4h0-----4h0-----4h0-----4h0-----4h0-----|
|-----3h0-----3h0-----3h0-----3h0-----3h0-----3h0-|
|-------------------------------------------------|
|-------------------------------------------------|

|-------------------------------------------------------------------------|
|-------------------------------------------------------------------------|
|-6(6.5)--4-------------4-6-4-6(6.5)--9--10--12--14--15-17-19-21-21(21.5)-|
|-----------6-4-6---6^4---------------------------------------------------|
|-------------------------------------------------------------------------|
|-------------------------------------------------------------------------|

p=pull off
\=slide down
notes in ()=bend previously played string to up to point in ()

any comments etc email me nameandnumberhere@hotmail.com
Tunning: Standard (E A D G B e)
Artist: THE DARKNESS
Title: GET YOUR HANDS OFF MY WOMAN

ususal notation:
\: slide down
/: slide up
h: hammer on
p: pull off
m: palm mute
b: full bend


Starts with this Dm chord

e|-0-|
B|-6-|
G|-7-|
D|-7-|let this ring out
A|-5-|
E|---|



MAIN RIFF/CHORUS:

e|----------------------------------------------------------------------------|
B|----------------------------------------------------------------------------|
G|-7-7------------5-5---------------7-7------------5-5--5---5-6-7-7-----------|
D|-7-7--8-8\-3-3--5-5--3/-5-5\-3-3--7-7--8-8\-3-3--5-5--5---5-6-7-7--8-8--3-3-|
A|-5-5--8-8\-3-3--3-3--3/-5-5\-3-3--5-5--8-8\-3-3--3-3--3-0-3-4-5-5--8-8\-3-3-|
E|------6-6\-1-1-------1/-3-3\-1-1-------6-6\-1-1--------------------6-6\-1-1-|

e|----------------------------------------------|
B|----------------------------------------------|
G|-5-5---------------7-7-----------5-5--5---5-6-|
D|-5-5--3/-5-5\-3-3--7-7-8-8\-3-3--5-5--5---5-6-|
A|-3-3--3/-5-5\-3-3--5-5-8-8\-3-3--3-3--3-0-3-4-|
E|------1/-3-3\-1-1------6-6\-1-1---------------|



then to VERSE 1:

e|---------------------------------------------------------------------|
B|---------------------------------------------------------------------|
G|7-----7-----7-----7-----7---7---7-----7-----7-----7------------------|
D|--0-0---0-0---0-0---0-0---0---0---0-0---0-0---0-0---0--3/-5-5\-3-3---| repeat this
A|-------------------------------------------------------3/-5-5\-3-3---|
E|-------------------------------------------------------1/-3-3\-1-1---|

BRIDGE:

e|-------------------------------------------------------|
B|-------------------------------------------------------|
G|-------------------------------------------------------|
D|-3-5-5-3-5--------------------------------3-5-5-3-5----|
A|-3-5-5-3-5--------------------------------3-5-5-3-5----|
E|-1-3-3-1-3--------------------------------1-3-3-1-3----|
I got no right... ...her frame, she's not.....


e|--------3----------------------------|
B|--------3----------------------------|
G|--------0--------------------3-4-5-6-|
D|--------0--------2--3--4-5-6-3-4-5-6-|
A|-----------------2--3--4-5-6-1-2-3-4-|
E|--------3-------\0--1--2-3-4---------|
you c***!!!


CHORUS:


e|----------------------------------------------------------------------------|
B|----------------------------------------------------------------------------|
G|-7-7------------5-5---------------7-7------------5-5--5---5-6-7-7-----------|
D|-7-7--8-8\-3-3--5-5--3/-5-5\-3-3--7-7--8-8\-3-3--5-5--5---5-6-7-7--8-8--3-3-|
A|-5-5--8-8\-3-3--3-3--3/-5-5\-3-3--5-5--8-8\-3-3--3-3--3-0-3-4-5-5--8-8\-3-3-|
E|------6-6\-1-1-------1/-3-3\-1-1-------6-6\-1-1--------------------6-6\-1-1-|

e|----------------------------------------------|
B|----------------------------------------------|
G|-5-5---------------7-7-----------5-5--5---5-6-|
D|-5-5--3/-5-5\-3-3--7-7-8-8\-3-3--5-5--5---5-6-|
A|-3-3--3/-5-5\-3-3--5-5-8-8\-3-3--3-3--3-0-3-4-|
E|------1/-3-3\-1-1------6-6\-1-1---------------|


VERSE 2 (sligtly different to verse 1)


e|---------------------------------------------------------------------|
B|---------------------------------------------------------------------|
G|7-----7-----7-----7-----7---7---7-----7-----7-----7------------------|
D|--0-0---0-0---0-0---0-0---0---0---0-0---0-0---0-0---0--3/-5-5\-3-3---|
A|-------------------------------------------------------3/-5-5\-3-3---|
E|-------------------------------------------------------1/-3-3\-1-1---|


e|-------------------------------------------------------------------|
B|-------------------------------------------------------------------|
G|-------------------------------------------------------------------|
D|-7-7-7-7-7-7-7-7-7-7-7-7-7-7-7-7-7-7-7-7-7-7-7-7-7-7-7-10-12-12-10-| X2
A|-5-5-5-5-5-5-5-5-5-5-5-5-5-5-5-5-5-5-5-5-5-5-5-5-5-5-5-8--10-10-8--|
E|-------------------------------------------------------------------|
m m m m m m m m m m m m m m m m m

then to

BRIDGE

CHORUS


SOLO:


e|-----------------------------------------------------------------|
B|-----------------------------------------------------------------|
G|-3p0-----3p0-3p0-----3p0-3p0-----3p0-----3p0-3p0-----3p0-3p0-----|
D|-----3p0---------3p0---------3p0-----3p0---------3p0---------3p0-|
A|-----------------------------------------------------------------|
E|-----------------------------------------------------------------|

e|-----------------------------------------------------------------|
B|-----------------------------------------------------------------|
G|-4p0-----4p0-4p0-----4p0-4p0-----4p0-----4p0-4p0-----4p0-4p0-----|
D|-----3p0---------3p0---------3p0-----3p0---------3p0---------3p0-|
A|-----------------------------------------------------------------|
E|-----------------------------------------------------------------|


e|-6-----------------------------------------------------10--|
B|-3--3-3---3-3-3-3---5----6----7---8----9---10-11-12-13-13b-|
G|-5b-5-3---3-3-3-5b--7b---8b---9b--10b--11b-----------------|
D|--------5--------------------------------------------------|
A|-----------------------------------------------------------|
E|-----------------------------------------------------------|

And back to the CHORUS
Song info
Get Your Hands Off My Woman
The Darkness
2001
  • Rock
  • Arena Rock
  • Glam
Similar songs
The Best Of Me - The Darkness
Life Goes On - Poison
Immortality - Pearl Jam

Hi! Hope you enjoy backing track experience.
If you want to help us in the development of the project, feel free to donate!