Take It Off - The Donnas
00:00 / 00:00
Tabs and lyrics
Tunning: Standard (E A D G B e)
Song: Take It Off
Artist: Donnas
Album: Spend the night ('2002)


Tuning: Standard

Intro

e ---------------------------------------------
b --------------2--2--2-2-2-2------------------
g --4-6-6-4--3--2--2-3-3-2---------------------
d --4-6-6-4--0--2--2-0-0-2---------------------
a --2-2-2-2--0--0--0-0-0-0---------------------
E ---------------------------------------------

e -----------3-3-3------------------------------
b -----------3-3-3--2-2-2-----------------------
g --4-6-6-4--0-0-0--2-3-2-----------------------
d --4-6-6-4--0-0-0--2-0-2-----------------------
a --2-2-2-2--x-x-x--0-0-0-----------------------
E -----------3-3-3------------------------------

Outro

e ---------------------------------------------
b --12-12-12-12-12-12-12-12--------------------
g ---------------------------------------------
d ---------------------------------------------
a ---------------------------------------------
E ---------------------------------------------

Verse

"I'm On My Second Drink."

e ---------------------------------------------
b ----------2--2--2-2-2------------------------
g --4--4-4--3--2--3-3-2------------------------
d --4--4-4--0--2--0-0-2------------------------
a --2--2-2--0--0--0-0-0------------------------
E ---------------------------------------------





"But I Have Had A Few Before..."

e ----------3-3-3------------------------------
b ----------3-3-3--2-3-2-----------------------
g --4--4-4--0-0-0--2-2-2-----------------------
d --4--4-4--0-0-0--2-0-2-----------------------
a --2--2-2--x-x-x--0-0-0-----------------------
E ----------3-3-3------------------------------

Chorus (Chords)

"Go On And Take It Off."

e ------------0---------------------------------
b -----2--2---0-----2----------------------------
g --4--3--2---1-----2----------------------------
d --4--0--2---2--5--2----------------------------
a --2-----0---2--5--0---------------------------
E ----------- 0--3-----------------------------

Outro (Let The A Chord Ring Out)

e ----------------------------------------------
b --2-------------------------------------------
g --2-------------------------------------------
d --2-------------------------------------------
a --0-------------------------------------------
E ----------------------------------------------

No bridge... no solo... but yall get the idea... I hope.
=^_^=
feel free to talk to me 'bout it ~~>roze_angel@hotmail.com
-sleepwalker-
Tunning: Standard (E A D G B e)
Artist-The Donnas
Title-Take It Off
Album-Spend The Night
www.thedonnas.com
This tab is 100 percent correct.

x=palm mute
s=slide
h=hammer on

Intro
e---------------------------------------------------
b---------------------------------------------------
g-----------7---------------------------------------
D--4-6-6-4--7--7-7-7-7-7-7---4-6-6-4--5-5--7-7-7-7--
A--2-2-2-2--5--7-7-7-7-7-7---2-2-2-2--5-5--7-7-7-7--
E--------------5-5-5-5-5-5------------3-3--5-5-5-5--
x x x

Verse is the same except change the
e-------------------------------
b-------------------------------
g-------------------------------
D--4-6-6-4-----4-----4----------
A--2-2-2-2-to--2-----2----------
E----------------0-0------------
x x
Pre-Chorus
e-----------------------------------------------
b-----------------------------------------------
g-----------------------------------------------
D--4-4-4-4-4-4-4-4-4-4-4-4-4-4-4-4--------------
A--4-4-4-4-4-4-4-4-4-4-4-4-4-4-4-4--------------
E--2-2-2-2-2-2-2-2-2-2-2-2-2-2-2-2--------------

Chours
e-----------------------------------------------
b-----------------------------------------------
g--4--4--4------7---2-2-2-2-2-2-2---------------
D--4--4--4------7---2-2-2-2-2-2-2--2-2-2-2-2-2--
A--2--2--2--0-0-5---0-0-0-0-0-0-0--2-2-2-2-2-2--
E----------------------------------0-0-0-0-0-0--
Take it off,......... Shake it off,............

e-------------------------------------------------------
b-------------------------------------------------------
g----------------------------------------4--4--4-4----7-
D--4-4-4-4-4-4-4-4-4-4-4-4-4-4-4-4-4-4---4--4--4-4----7-
A--4-4-4-4-4-4-4-4-4-4-4-4-4-4-4-4-4-4---2--2--2-2--0-5-
E--2-2-2-2-2-2-2-2-2-2-2-2-2-2-2-2-2-2------------------
'Cause I Get_________ what...............

Solo
e----------------------------------------------------------------------
b-----------------------------------------------------7-------7---7--9-
g--2----2---------------------------------------------7-------7---7--9-
D-----4---4---2----2------4s9--9--9--7-9---9--9--9--7----9--9---9------
A----------------4----4-2----------------------------------------------
E----------------------------------------------------------------------

e---------------------------------------5--------------------------
b--7-----------------------------5---5-----------------------------
g--7-------------------2------2--4---4-----4---4-----2h4--2--------
D-----9--7--9--9s2--4-----4-----------------------4----------------
A------------------------------------------------------------------
E------------------------------------------------------------------

Breakdown
e------------------------------------------------------------
b------------------------------------------------------------
g------------------------------------------------------------
D------5------5------7-----7------9-----9------9-----9-------
A------5------5------7-----7------9-----9------9-----9-------
E--3-3-3--3-3-3--5-5-5-5-5-5--7-7-7-7-7-7--7-7-7-7-7-7-------
x x x x x x x x x x x x x x x x

The End
Tunning: Standard (E A D G B e)
Take it off tab by The Donnas

***********************
The Donnas - Take it off
************************

Song: Take It Off
Artist: The Donnas

This one is little more different that the other tabs.
Listen carefuly to the song first, you'll see I'm right

x: palm mute
s: Slide
h: hammer on
P: pull of
b: bend

Intro
|----------------------------------------------------|
|----------------------------------------------------|
|---------------7--------7-6-------------------------|
|------4-6-6-4--7--7-7-7-7-7---4-6-6-4--5-5--7-7-7-7-|
|------2-2-2-2--5--7-7-7-7-7---2-2-2-2--5-5--7-7-7-7-|
|------------------5-5-5-5-5------------3-3--5-5-5-5-|
x x
|------------------------------------------|
|------------------------------------------|
|------------4-4-----4-4-------------------|
|--4-6-6-4---4-4-----4-4-5-5-5-5-7-7-7-7---|
|--2-2-2-2---2-2-----2-2-5-5-5-5-7-7-7-7---|
|----------0------0------3-3-3-3-5-5-5-5---|

Vers
|----------------------------------------------------|
|---4-4-4-4--------3-2----4-4-4-4--------------------|
|---4-4-4-4----2-4-4-4----4-4-4-4--------------------|
|---4-4-4-4--4-2-4-4-4----4-4-4-4--5-5-5-5--7-7-7-7--|
|---2-2-2-2--2-2-2-2-2----2-2-2-2--5-5-5-5--7-7-7-7--|
|----------------------------------3-3-3-3--5-5-5-5--|
x

Pre-chorus
|---------------------------------|
|---------------------------------|
|---------------------------------|
|-4-4-4-4-4-4-4-4-4-4-4-4-4-4-4-4-|
|-4-4-4-4-4-4-4-4-4-4-4-4-4-4-4-4-|
|-2-2-2-2-2-2-2-2-2-2-2-2-2-2-2-2-|

Chorus
|---------------------------------------------------|
|---------------------------------------------------|
|-4-4-4-2-4-7-----------4-4-4-4--4-4-4-4--6-6-6-6---|
|-4-4-4-2-4-7--7-7-7-7--2-2-2-2--5-5-5-5--7-7-7-7---|
|-2-2-2-0-2-5--7-7-7-7--2-2-2-2--5-5-5-5--7-7-7-7---|
|--------------5-5-5-5--0-0-0-0--3-3-3-3--5-5-5-5---|

solo
|--------------------------------------------------------------|
|---2-2--------------------------------------------7-------7---|
|-------4-2---2------------------------------------7-------7---|
|-----------4---4-2---2------4s9--9-9-7-9--9-9-9-7----9--9---9-|
|-------------------4---4--2-----------------------------------|
|--------------------------------------------------------------|
x x x x

|-------------------------------------5--------------------|
|--7--9--7------------------------5--5---------------------|
|--7-b9--7----------------2----2--4-b4----4--4----2h4p2----|
|----------9-7-9--9s2--4----4------------------4--------4--|
|----------------------------------------------------------|
|----------------------------------------------------------|

|----------------------------------------------------------|
|----------------------------------------------------------|
|----------------------------------------------------------|
|--2h4p2h4p2h4p2h4p2h4p2h4p0h2-4p0-------------------------|
|----------------------------------------------------------|
|----------------------------------------------------------|


Breakdown
|---------------------------------------------------------|
|---------------------------------------------------------|
|---------------------------------------------------------|
|------5----5-5-7-----------------------------------------|
|--2-2-2--0-2-2-5--7-7-7----------------------------------|
|------------------5-5-5---0-0-0-0--0-b3-2-0-b5-3-2-------|
x x x x x x x x x x


Ending
|-----------------------|
|-----------------------|
|-4-4-4-4---4-4---6-----|
|-2-2-2-2---5-5---7-----|
|-2-2-2-2---5-5---7-----|
|-0-0-0-0---3-3---5-----|
Song info
Take It Off
The Donnas
2001
  • Rock
  • Pop Rock
Alternative tracks
Similar songs
Good Riddance - Green Day
Dont Look Back - Boston
You Wont See Me - The Beatles
Maps - Maroon 5

Hi! Hope you enjoy backing track experience.
If you want to help us in the development of the project, feel free to donate!