Keep Your Hands To Yourself - The Georgia Satellites
00:00 / 00:00
Tabs and lyrics
Tunning: Standard (E A D G B e)
Keep Your Hands To Yourself
Georgia Satellites

Tab by:omanyen@fusemail.com

This is a very simple song. A slashing " Chuck Berry " stlye which
you can really have alot of improvising on. I've included most of
the riffs, and a few of my own. Mix them up, toss them around, add
some of your own stuff, and just wail.


[Intro]

e|------------------------------|-----------------------------|
B|------------------------------|-----------------------------|
G|------------------------------|-----------------------------|
D|-0h2-4--2--4--2-2-4-2-5-2-4-2-|-0h2-4--2--4-2-2-4-2-5-2-4-2-|
A|-0---0--0--0--0-0-0-0-0-0-0-0-|-0---0--0--0-0-0-0-0-0-0-0-0-|
E|------------------------------|-----------------------------|


[Verse 1]

A
I've got a little change in my pocket, goin' jingle-lingle-ling,


I wanna call ya on the telephone baby, and give you a ring.

D
But each time we talk, I get the same ole thing,

A
always no huggy, no kissy, 'till I get a wedding ring.

E
My honey, my baby, don't put your love upon no shelf,

A
She said "don't hand me no lines and keep your hands to yourself".

1st
LEAD:

b*=bend and hold note b#=pick and release bend from b*

e|--8-8-8-8--5----------------------|--8--8--8--8--8--8-------5--|
B|--7-7-7-7--5--7--5------8---------|--7b-5--7b-5--7b-5-------5--|
G|--------------7--5--7b*---7b#-5---|--------------------5h6-----|
D|--------------------------------7-|----------------------------|
A|----------------------------------|----------------------------|
E|----------------------------------|----------------------------|


[Verse 2]

A
Oooh baby, baby, baby, why you wanna treat me this way?


You know I'm still your lover boy, I still feel the same way.

D
That's when she told me a story, 'bout free milk and a cow,

A
She said no huggy, no kissy, 'till I get a wedding vow.

E
My honey, my baby, don't put your love upon no shelf.

A
She said "don't hand me no lines and keep your hands to yourself".

2nd
LEAD:

A A
e|--8-8-8-8-5-0-----5-0-----5-----5-|-5r2r0----------------------------|
B|--7-7-7-7-5-0-----5-0-----5-----5-|--------5-2-------------5---------|
G|--------------4/6-----5h6---5h6---|-------------4r2---2-4--4b-------2|
D|----------------------------------|-----------------4---------0h2h4--|
A|----------------------------------|----------------------------------|
E|----------------------------------|----------------------------------|

D
e|-////10-10-10--8-----8--10--8-------10--|
B|------------------10-----------10-------|
G|----------------------------------------|
D|----------------------------------------|
A|----------------------------------------|
E|----------------------------------------|

A
e|------5------5------5------5------5-|
B|------5------5------5------5------5-|
G|--5-6----5-6----5-6----5-6----5-6---|
D|------------------------------------|
A|------------------------------------|
E|------------------------------------|

E
e|-5////12----------12-------12--15--12------12-|
B|-5////12----------12-------12--14--12--12--12-|
G|---------13-12h13----12h13-------------13-----|
D|----------------------------------------------|
A|----------------------------------------------|
E|----------------------------------------------|

A E7
e|--8-5----------------------0--|
B|--7-5-7--7r5---------------5--|
G|------7--7r5---5-7-5-------7--|
D|-------------7-------7-5---6--|
A|---------------------------7--|
E|------------------------------|

A
e|--5-7-8-7--5-7-8-7--5-7-8-7-8-7-5-7--5-7-8-7-8-7-5-7--8-5-----------|
B|--5-7-8-7--5-7-8-7--5-7-8-7-8-7-5-7--5-7-8-7-8-7-5-7--7-5-8-5-6-5---|
G|----------------------------------------------------------7-5-7-5-6-|
D|------------------------------------------------------------------7-|
A|--------------------------------------------------------------------|
E|--------------------------------------------------------------------|

D
e|-5////10--10-----------10-------10--13--10-|
B|-5////10--10--12-------10-------10--12--10-|
G|--------------12-10h11----10h11------------|
D|-------------------------------------------|
A|-------------------------------------------|
E|-------------------------------------------|

A E
e|------5------5------5------5-|------------------------15r14r12-------------|
B|------5------5------5------5-|------12-14r12----12-14----------15r14r12----|
G|--5-6----5-6----5-6----5-6---|-//13----------13-------------------------13-|
D|-----------------------------|---------------------------------------------|
A|-----------------------------|---------------------------------------------|
E|-----------------------------|---------------------------------------------|

A E7
e|--8-5----------------------0-|
B|--7-5-7-5-7r5--------------5-|
G|------7-5-7r5---5-7-5------7-|
D|--------------7-------7-5--6-|
A|---------------------------7-|
E|-----------------------------|


[Verse 3]

A
You see I wanted her real bad and I was about to give in.


That's when she started talkin' 'bout true love, she started talkin' 'bout sin.

D
I said "honey I'll live with you for the rest of my life",

A
she said, "no huggy, no kissy, 'till you make me your wife.

E
My honey, my baby, don't put your love upon no shelf.

A
She said,"don't hand me no lines and keep your hands to yourself".


( Feel free to improvise at this part for the ending lead )

************************************

| h Hammer-on
| r Release
| b Bend
| / Slide up

************************************
Song info
Keep Your Hands To Yourself
The Georgia Satellites
2001
  • Rock
  • Classic Rock
Similar songs
Here Go Again - Whitesnake
Burnin For You - Blue Öyster Cult
Jesus Christ Superstar - Jesus Christ Superstar
Turn The Page - Metallica
Dure Limite - Téléphone

Hi! Hope you enjoy backing track experience.
If you want to help us in the development of the project, feel free to donate!