Die All Right - The Hives
00:00 / 00:00
Tabs and lyrics
Tunning: Standard (E A D G B e)
|------------------------------
|------------------------------
|-1--4--6--4--4--8--8--8--8--8-
|-2--5--7--5--5--9--9--9--9--9-
|-2--5--7--5--5--9--9--9--9--9-
|-0--3--5--3--3--7--7--7--7--7-
Tunning: Standard (E A D G B e)
------------------------------------------------------------
The Hives - Die, All Right!
------------------------------------------------------------

By:Jack Lloyd-Jones email: getcha_grooveon@hotmail.com

Intro (after drums)
e|-0-3-5----33-5-7777---------------------------------|
B|-0-3-5----33-5-7777---------------------------------|
G|-1-4-6----44-6-8888---------------------------------|
D|-2-5-7----55-7-9999---------------------------------|
A|-2-5-7----55-7-9999---------------------------------|
E|-0-3-5----33-5-7777---------------------------------|

Verse (same as intro)
e|-0-3-5----33-5-7777---------------------------------|
B|-0-3-5----33-5-7777---------------------------------|
G|-1-4-6----44-6-8888---------------------------------|
D|-2-5-7----55-7-9999---------------------------------|
A|-2-5-7----55-7-9999---------------------------------|
E|-0-3-5----33-5-7777---------------------------------|

Pre-Chorus
e|-8-8-8-8-8-8-8-8--77777777--------------------------|
B|-8-8-8-8-8-8-8-8--77777777--------------------------|
G|-9-9-9-9-9-9-9-9--88888888--------------------------|
D|-1010101010101010-99999999--------------------------|
A|-1010101010101010-99999999--------------------------|
E|-8-8-8-8-8-8-8-8--77777777--------------------------|

Chorus
e|--------------------33333333-55555------------------|
B|--------------------33333333-55555------------------|
G|-999999-10-9-77777--44444444-66666------------------|
D|-999999-10-9-77777--55555555-77777------------------|
A|-777777-10-7-55555--55555555-77777------------------|
E|--------------------33333333-55555------------------|

these r all the riffs u need apart from the bridge but thats easy to work out for urself.
i think its all correct. if u like it rate it 5 stars email me getcha_grooveon@hotmail.com
i luv 2 talk 2 sum gd guitar players from england?
Tunning: Standard (E A D G B e)
It looks long but thats coz I've tried to put the sections down in the right order
This might not be perfect but it's...alright

INTRO

E 0-3-5-3-3-7-7-7-7-7
B 0-3-5-3-3-7-7-7-7-7
G 1-4-6-4-4-8-8-8-8-8 x3
D 2-5-7-5-5-9-9-9-9-9
A 2-5-7-5-5-9-9-9-9-9
E 0-3-5-3-3-7-7-7-7-7

then just:

E 0-3-5
B 0-3-5
G 1-4-6 x1
D 2-5-7
A 2-5-7
E 0-3-5

VERSE (hey, I got a message…)

Same as the intro:

E 0-3-5-3-3-7-7-7-7-7
B 0-3-5-3-3-7-7-7-7-7
G 1-4-6-4-4-8-8-8-8-8 x6
D 2-5-7-5-5-9-9-9-9-9
A 2-5-7-5-5-9-9-9-9-9
E 0-3-5-3-3-7-7-7-7-7

PRE-CHORUS 1 (Thank you Mr. CEO)

E 8 - 7
B 8 - 7
G 9 - 8 x8 of each
D 10- 9
A 10- 9
E 8 - 7

And then back to the verse- (Hey I got some money)

E 0-3-5-3-3-7-7-7-7-7
B 0-3-5-3-3-7-7-7-7-7
G 1-4-6-4-4-8-8-8-8-8 x4
D 2-5-7-5-5-9-9-9-9-9
A 2-5-7-5-5-9-9-9-9-9
E 0-3-5-3-3-7-7-7-7-7

PRE-CHORUS 2 (slightly different) (Thank you Mr CEO)

E 8 - 7
B 8 - 7
G 9 - 8 x8 of first, x16 of second
D 10- 9
A 10- 9
E 8 - 7

CHORUS ( I filled my pockets…)

E -----------------------------------------------
B -----------------------------------------------
G 9-9-9-9-9-9----9-7-7-7-7------------------------ x4
D 9-9-9-9-9-9----9-7-7-7-7-5-5-5-5-5-5-5-5-7-7-7-7
A 7-7-7-7-7-7-10-7-5-5-5-5-5-5-5-5-5-5-5-5-7-7-7-7
E -------------------------3-3-3-3-3-3-3-3-5-5-5-5

Then VERSE x6

Then PRE-CHORUS 2

Then CHORUS x3 as usual

PRE BRIDGE (But not right now…)

E ----------
B ----------
G 9 - 7 - 4 First two chords x8, third chord x16
D 9 - 7 - 4
A 7 - 5 - 2
E ----------

then just:

E 0-3-5
B 0-3-5
G 1-4-6 x1
D 2-5-7
A 2-5-7
E 0-3-5

BRIDGE (Hey, why don’t you do the same…)

E ------------------
B ------------------
G 9 – 4 – 10 - 5 First 3 chords x16, 4th chord x32
D 9 – 4 – 10 - 5
A 7 – 2 – 8 - 3
E ------------------

Then VERSE riff:

E 0-3-5-3-3-7-7-7-7-7
B 0-3-5-3-3-7-7-7-7-7
G 1-4-6-4-4-8-8-8-8-8 x1
D 2-5-7-5-5-9-9-9-9-9
A 2-5-7-5-5-9-9-9-9-9
E 0-3-5-3-3-7-7-7-7-7

PRE CHORUS 3 (again, a bit different) (And the way I feel tonight)

E 8 - 7
B 8 - 7
G 9 - 8 x16 of first, x16 of second
D 10- 9
A 10- 9
E 8 - 7

Then CHORUS x4

Then, I can’t seem to get the ending chord sounding right, but try:

E 5
B 5
G 6 Bend it a bit as well
D 7
A 7
E 5

Done!
Tunning: Standard (E A D G B e)
The Hives : Die, All Right!
Full credit to the Hives and their producers!
Tabbed by Richard Pugh


Drum fill for intro!

Intro:
e|--------------------------------|
B|--------------------------------|
G|--------------------------------|
D|2---5---7---------5///9-9-9-9-9-|
A|2---5---7---------5///9-9-9-9-9-|
E|0---3---5---------3///7-7-7-7-7-| X3

Riff 1
e|--------------------------------|
B|--------------------------------|
G|--------------------------------|
D|2---5---7-----------------------|
A|2---5---7-----------------------|
E|0---3---5-----------------------| X1

Verse:
e|--------------------------------|
B|--------------------------------|
G|--------------------------------|
D|2---5---7---------5///9-9-9-9-9-|
A|2---5---7---------5///9-9-9-9-9-|
E|0---3---5---------3///7-7-7-7-7-| X6

e|--------------------------------|
B|--------------------------------|
G|--------------------------------|
D|10101010101010109-9-9-9-9-9-9-9-|
A|10101010101010109-9-9-9-9-9-9-9-|
E|8-8-8-8-8-8-8-8-7-7-7-7-7-7-7-7-| X1

e|--------------------------------|
B|--------------------------------|
G|--------------------------------|
D|2---5---7---------5///9-9-9-9-9-|
A|2---5---7---------5///9-9-9-9-9-|
E|0---3---5---------3///7-7-7-7-7-| X4

Prechorus:
e|------------------------------------------------|
B|------------------------------------------------|
G|------------------------------------------------|
D|10101010101010109-9-9-9-9-9-9-9-9-9-9-9-9-9-9-9-|
A|10101010101010109-9-9-9-9-9-9-9-9-9-9-9-9-9-9-9-|
E|8-8-8-8-8-8-8-8-7-7-7-7-7-7-7-7-7-7-7-7-7-7-7-7-| X1

Chorus:
e|----------------------------------------------------------------|
B|----------------------------------------------------------------|
G|9-9-9-9-9-9-12--7-7-7-7-7---------------------------------------|
D|9-9-9-9-9-9-12--7-7-7-7-7-------5-5-5-5-5-5-5-5-7-7-7-7-7-------|
A|7-7-7-7-7-7-10--5-5-5-5-5-------5-3-5-5-5-5-5-5-7-7-7-7-7-------|
E|--------------------------------3-3-3-3-3-3-3-3-5-5-5-5-5-------| X4

Drum fill from intro!

Verse:
e|--------------------------------|
B|--------------------------------|
G|--------------------------------|
D|2---5---7---------5///9-9-9-9-9-|
A|2---5---7---------5///9-9-9-9-9-|
E|0---3---5---------3///7-7-7-7-7-| X6

Prechorus:
e|------------------------------------------------|
B|------------------------------------------------|
G|------------------------------------------------|
D|10101010101010109-9-9-9-9-9-9-9-9-9-9-9-9-9-9-9-|
A|10101010101010109-9-9-9-9-9-9-9-9-9-9-9-9-9-9-9-|
E|8-8-8-8-8-8-8-8-7-7-7-7-7-7-7-7-7-7-7-7-7-7-7-7-| X1

Chorus:
e|----------------------------------------------------------------|
B|----------------------------------------------------------------|
G|9-9-9-9-9-9-12--7-7-7-7-7---------------------------------------|
D|9-9-9-9-9-9-12--7-7-7-7-7-------5-5-5-5-5-5-5-5-7-7-7-7-7-------|
A|7-7-7-7-7-7-10--5-5-5-5-5-------5-3-5-5-5-5-5-5-7-7-7-7-7-------|
E|--------------------------------3-3-3-3-3-3-3-3-5-5-5-5-5-------| X3

Middle 8:
e|----------------------------------------------------------------|
B|----------------------------------------------------------------|
G|----------------------------------------------------------------|
D|141414141414171712121212121212129-9-9-9-9-9-9-9-9-9-9-9-9-9-9-9-|
A|141414141414171712121212121212129-9-9-9-9-9-9-9-9-9-9-9-9-9-9-9-|
E|121212121212151510101010101010107-7-7-7-7-7-7-7-7-7-7-7-7-7-7-7-| X1

e|--------------------------------|
B|--------------------------------|
G|--------------------------------|
D|2---5---7-----------------------|
A|2---5---7-----------------------|
E|0---3---5-----------------------| X1

e|------------------------------------------------------------------------------------------------|
B|------------------------------------------------------------------------------------------------|
G|------------------------------------------------------------------------------------------------|
D|2-2-2-2-2-2-2-2-2-2-2-2-2-2-2-2-9-9-9-9-9-9-9-9-9-9-9-9-9-9-9-9-12121212121212121212121212121212|
A|2-2-2-2-2-2-2-2-2-2-2-2-2-2-2-2-9-9-9-9-9-9-9-9-9-9-9-9-9-9-9-9-12121212121212121212121212121212|
E|0-0-0-0-0-0-0-0-0-0-0-0-0-0-0-0-7-7-7-7-7-7-7-7-7-7-7-7-7-7-7-7-10101010101010101010101010101010| X1

e|--------------------------------|
B|--------------------------------|
G|--------------------------------|
D|10101010101010101010101010101010|
A|10101010101010101010101010101010|
E|8-8-8-8-8-8-8-8-8-8-8-8-8-8-8-8-| X2

e|--------------------------------|
B|--------------------------------|
G|--------------------------------|
D|2---5---7---------5///9-9-9-9-9-|
A|2---5---7---------5///9-9-9-9-9-|
E|0---3---5---------3///7-7-7-7-7-| X1

e|----------------------------------------------------------------|
B|----------------------------------------------------------------|
G|----------------------------------------------------------------|
D|101010101010101010101010101010109-9-9-9-9-9-9-9-9-9-9-9-9-9-9-9-|
A|101010101010101010101010101010109-9-9-9-9-9-9-9-9-9-9-9-9-9-9-9-|
E|8-8-8-8-8-8-8-8-8-8-8-8-8-8-8-8-7-7-7-7-7-7-7-7-7-7-7-7-7-7-7-7-| X1


Chorus:
e|----------------------------------------------------------------|
B|----------------------------------------------------------------|
G|9-9-9-9-9-9-12127-7-7-7-7-7-7-7---------------------------------|
D|9-9-9-9-9-9-12127-7-7-7-7-7-7-7-5-5-5-5-5-5-5-5-7-7-7-7-7-7-7-7-|
A|7-7-7-7-7-7-10105-5-5-5-5-5-5-5-5-3-5-5-5-5-5-5-7-7-7-7-7-7-7-7-|
E|--------------------------------3-3-3-3-3-3-3-3-5-5-5-5-5-5-5-5-| X4

Outro:
e|--------------------------------|
B|--------------------------------|
G|--------------------------------|
D|9~~~~~~~~~~~~~~~~~~~~~~~~~~~~~~~|
A|9~~~~~~~~~~~~~~~~~~~~~~~~~~~~~~~|
E|7~~~~~~~~~~~~~~~~~~~~~~~~~~~~~~~| X1

The Hives at their best in my opinion. I've played along to the record with this tab and it sounds right,
so enjoy this tab and love The Hives!
Song info
Die All Right
The Hives
2001
  • Rock
  • Garage Rock
Alternative tracks
Similar songs
Street Fighting Man - The Rolling Stones
Reptilia - The Strokes
Hang On Sloopy - The McCoys
Louie Louie - Kingsmen
Shes A Mod - Ray Columbus and The Invaders

Hi! Hope you enjoy backing track experience.
If you want to help us in the development of the project, feel free to donate!