All I Want - The Offspring
00:00 / 00:00
Tabs and lyrics
Tunning: Standard (E A D G B e)
All I Want
Offspring


You will have to find the rythm

INTRO
---- --- ---- --- --- ---- --- ---- --- ---- ---
---- --- ---- --- --- ---- --- ---- --- ---- ---
-10- -8- -10- -6- -8- -10- -8- -10- -6- -13- -8-
-10- -8- -10- -6- -8- -10- -8- -10- -6- -13- -8-
-8-- -6- -8-- -4- -6- -8-- -6- -8-- -4- -11- -6-
---- --- ---- --- --- ---- --- ---- --- ---- ---

VERSE
---- --- ----
---- --- ----
-10- -8- -10-
-10- -8- -10-
-8-- -6- -8--
---- --- ----
pm pm pm

Then,

No guitar, only bass

Then
---- --- ---- --- ---- ---
---- --- ---- --- ---- ---
-10- -8- -10- -6- -13- -8-
-10- -8- -10- -6- -13- -8-
-8-- -6- -8-- -4- -11- -6-
---- --- ---- --- ---- ---
pm pm pm


CHORUS
---- --- --- --- ---
---- --- --- --- ---
-10- -8- -6- --- -8-
-10- -8- -6- -6- -8-
-8-- -6- -4- -6- -6-
---- --- --- -4- ---

BRIDGE
--- --- ---- --- --- --- --- ---
--- --- ---- --- --- --- --- ---
-6- -8- -10- -8- -6- -8- -6- -5-
-6- -8- -10- -8- -6- -8- -6- -5-
-4- -6- -8-- -6- -4- -6- -4- -3-
--- --- ---- --- --- --- --- ---

CHORUS(2)
---- --- --- ---- --- --- ---- --- --- --- --- ----
---- --- --- ---- --- --- ---- --- --- --- --- ----
-10- -8- -6- -10- -8- -6- -10- -8- -6- --- -8- -10-
-10- -8- -6- -10- -8- -6- -10- -8- -6- -6- -8- -10-
-8-- -6- -4- -8-- -6- -4- -8-- -6- -4- -6- -6- -8--
---- --- --- ---- --- --- ---- --- --- -4- --- ----

YA YA YA YA YA
INTRO
VERSE X 2
CHORUS X4
INTRO
VERSE X 2
CHORUS X 2
CHORUS(2)
YA YA YA YA YA

pm = PALM MUTE

-----------------------------
Subject: Tab for "All I Want"
by the Offspring


This was the first single of Ixnay.
It's really easy too.

Intro:
E------------------------------------------|
B------------------------------------------|
G--11-11-11-9--11-11-11---7-7-7-7--9-9-9-9-|
D--11-11-11-9--11-11-11---7-7-7-7--9-9-9-9-|
A--9--9--9--7--9--9--9----5-5-5-5--7-7-7-7-|
E------------------------------------------|


Verse
E----------------------------------------------------|
B----------------------------------------------------|
G------------------------------------7-7-7-7--9-9-9-9|
D--4-4-4-4-4-4-4------4-4-4-4-4-4-4--7-7-7-7--9-9-9-9|
A--4-4-4-4-4-4-4------4-4-4-4-4-4-4--5-5-5-5--7-7-7-7|
E--2-2-2-0-2-2-2------2-2-2-0-2-2-2------------------|

Chorus

E-----------------------------------------
B-----------------------------------------
G-11-11-11-11-11-11-11-11--7-7-7-7-7-7-7-7
D-11-11-11-11-11-11-11-11--7-7-7-7-7-7-7-7
A-9--9--9--9--9--9--9--9---5-5-5-5-5-5-5-5
E-----------------------------------------

E---------------------------------|
B---------------------------------|
G------------------9-9-9-9-9-9-9-9|
D-7-7-7-7-7-7-7-7--9-9-9-9-9-9-9-9|
A-7-7-7-7-7-7-7-7--7-7-7-7-7-7-7-7|
E-5-5-5-5-5-5-5-5-----------------|

Bridge:*

E----------------------------|
B----------------------------|
G-7-7-9--11-11-9--7-7-9--7--6|
D-7-7-9--11-11-9--7-7-9--7--6|
A-5-5-7--9--9--7--5-5-7--5--4|
E----------------------------|

NOTE: The Last D chord and C# in the bridge are played 16 times each


Tunning: Standard (E A D G B e)
INTRO
E------------------------------------------------------------------|
B------------------------------------------------------------------|
G--11-11-9-11-11-11--7-7-7--9-9-9---11-11-9-11-11-11--7-7-7--9-9---|
D--11-11-9-11-11-11--7-7-7--9-9-9---11-11-9-11-11-11--7-7-7--7-9---|
A---9--9-7--9--9--9--5-5-5--7-7-7----9--9-7--9--9--9--5-5-5----7---|
E------------------------------------------------------------------|

VERSE X 2
E--------------------------------------------------------------------|
B--------------------------------------------------------------------|
G-------------------------------------------------------7-7-7--9-9---|
D---4-4-4-4--2--4-4-4-4------------4-4-4-4--2--4-4-4-4--7-7-7--7-9---|
A---4-4-4-4--2--4-4-4-4----bass----4-4-4-4--2--4-4-4-4--5-5-5----7---|
E---2-2-2-2--0--2-2-2-2---played---2-2-2-2--0--2-2-2-2---------------|
\____palm-mute______/ \_____palm-mute_____/

CHORUS X4 *=play 6X
E-------------------|
B----*---*-------*--|
G--11---7----*--9---|
D--11---7---7---9---|
A---9---5---7---7---|
E-----------5-------|

->Then play INTRO, VERSE and CHORUS

Bridge *=play several times m=mute
E------------------------------------------------------------------|
B-----------------------------------------*-------*----------------|
G---7-7-7-9---11-11-11-9----7-7-7-9-9--7-7-----6-6---4-4-----------|
D---7-7-7-9---11-11-11-9----7-7-7-9-9--7-7-----6-6---4-4-7-7-6-6---|
A---5-5-5-7----9--9--9-7----5-5-5-7-7--5-5-----4-4---2-2-7-7-6-6---|
E----------------------------------------m-------m-------5-5-4-4---|

->Play CHORUS X2

# outro # *=play 6X
E-----------------------------------|
B-(--*---*)-------*-----------------|
G-(11---7-)----*-9--9-9--9-9-9-11---|
D-(11---7-)---7--9--9-9--9-9-9-11---|
A-(-9---5-)---7--7--7-7--7-7-7--9---|
E-------------5---------------------|
Tunning: Standard (E A D G B e)
|---------------------------------------------------------------------------|
|------------------------------- OFFSPRING ---------------------------------|
|---------------------------------------------------------------------------|

song: all i want
band: offspring
album: ixnay on the hombree, columbia records 1997

[Intro]

yeah yeah yeah yeah

e|--------------------------|
B|--------------------------|
G|--1111-9-1111-11-777-999--|
D|--1111-9-1111-11-777-999--|
A|---9-9-7--9-9--9-555-777--|
E|--------------------------|

e|--------------------------|
B|--------------------------|
G|--1111-9-1111-11-777-14-9-|
D|--1111-9-1111-11-777-14-9-|
A|---9-9-7--9-9--9-555-12-7-|
E|--------------------------|

[Verse]

e|-----------------------------|
B|-----------------------------|
G|--------------------777-14-9-|
D|--44-2-4-----44-2-4-777-14-9-|
A|--44-2-4-----44-2-4-555-12-7-|
E|--22-0-2-----22-0-2----------|(x2)

[Bridge]

e|-------------------------------|
B|-------------------------------|
G|--1111111111-77777-------99999-|
D|--1111111111-77777-77777-99999-|
A|---9-9-9-9-9-55555-77777-77777-|
E|-------------------55555-------|(x2)

[Chorus]

THE CHORUS IS JUST LIKE THE BRIDGE

BRIDGE (LIKE THE INTRO)

I DONT KNOW WHAT TO CALL THIS PART SO I CALL IT "THE SLOW PART"
e|--------------------------------------------|
B|--------------------------------------------|
G|--777-9-111111-9-777-9999-77777777-66666666-|
D|--777-9-111111-9-777-9999-77777777-66666666-|
A|--555-7--9-9-9-7-555-7777-55555555-44444444-|
E|--------------------------------------------|

THE SONG GOES LIKE THIS

[Intro]
[Verse]
[Bridge]
[Chorus]
[Bridge] (Intro)
[Verse]
[Bridge]
[Chorus]
[The slow part]
[Bridge]
[Chorus]
Tunning: Standard (E A D G B e)
-------------------------------------------------------------------------------
ALL I WANT - The Offspring
-------------------------------------------------------------------------------
Tabbed by: ygokazuki
Email: ygokazuki@gmail.com

Tuning: Standard (EADGBe)

Tempo: 180 BPM - Fast Rock

Performance Notes: This is tabbed out for one guitar;
both Dexter and Noodles play the exact same thing live.

Pre-Verse
e|-------------------------------------------|
B|-------------------------------------------|
G|-11-11-11-11-9-11-11-9-7-7-7-7-7-9-9-9-9-9-|
D|-11-11-11-11-9-11-11-9-7-7-7-7-7-9-9-9-9-9-|
A|--9--9--9--9-7--9--9-7-5-5-5-5-5-7-7-7-7-7-|
E|-------------------------------------------|

e|--------------------------------------|
B|---------------------------------10---|
G|-11-11-11-11-9-11-11-9-7-7-7-7-7--9-9-|
D|-11-11-11-11-9-11-11-9-7-7-7-7-7--7-9-|
A|--9--9--9--9-7--9--9-7-5-5-5-5-5----7-|
E|--------------------------------------|

Verse (x2) (When playing live, Noodles does a pickscrape over the bass solo)
e|--------------|------------------|-----------------------------|
B|--------------|------------------|------------------------10---|
G|--------------|-b--------s-------|--------------7-7-7-7-7-9--9-|
D|--------------|---a--------o-----|--------------7-7-7-7-7-7--9-|
A|-4-4-4-4-4-4:-|-----s--------l---|-4-4-4-4-4-4:-5-5-5-5-5----7-|
E|-2-2-2-2-0-2:-|-------s--------o-|-2-2-2-2-0-2:----------------|
pm X X X X X X X X X X X

Chorus (x4)
e|-----------------------------------------------------|
B|-----------------------------------------------------|
G|-11-11-11--11-11--7-7-7--7-7--------------9-9-9--9-9-|
D|-11-11-11--11-11--7-7-7--7-7--7-7-7--7-7--9-9-9--9-9-|
A|--9--9--9---9--9--5-5-5--5-5--7-7-7--7-7--7-7-7--7-7-|
E|------------------------------5-5-5--5-5-------------|

Repeat Pre-Verse, Verse (x2), and Chorus (x4)

Bridge
e|-------------------------------------|
B|-------------------------------------|
G|-7-7--7-9---11-11--9-9---7-7--7-9--9-|
D|-7-7--7-9---11-11--9-9---7-7--7-9--9-|
A|-5-5--5-7----9--9--7-7---5-5--5-7--7-|
E|-------------------------------------|
(When playing live, Noodles does a pickscrape X


Suggest correction


What's this?

You can suggest a correction to this tab. Community and Mods will review your correction and vote to approve or reject it.



Song info
All I Want
The Offspring
2001
  • Rock
  • Pop Rock
  • Punk
Similar songs
All Summer Long - Kid Rock
74-75 - The Connells
Private Eyes - Hall & Oates

Hi! Hope you enjoy backing track experience.
If you want to help us in the development of the project, feel free to donate!