Come Out And Play - The Offspring
00:00 / 00:00
Tabs and lyrics
Tunning: Standard (E A D G B e)
Come Out And Play (Keep 'em Seperated) by The Offspring
Powerchords. Distortion.

guitar 1
E ----------------------------------|
B ----------------------------------| This is used in the chorus and verse,
G --4----7-----------4----7---------| in the verse play some chords a few
D --4----7---4-7-----4----7---4-7---| times more with some palm-muting.
A --2----5---4-7-----2----5---4-7---|
E -----------2-5--------------2-5---|

guitar 2
E ----------------------------------|
B ----------------------------------|
G -9-9-9---12/s\7---9-9-9--12/s\7---| Play this a few times with guitar 1
D -7-7-7---10/s\5---7-7-7--10/s\5---| before the singing starts.
A ----------------------------------|
E ----------------------------------|

that egyptian guitar riff (guitar 2)
E ----------------------------------|
B ----------------------------------|
G ----------------------------------| This is played with the guitar 1
D -------1-2-4-2-1------------------| verse part in the background
A -2/h\3-----------3-2---3-2--------|
E ----------------------------------|

guitar 1
E ----------------------------------|
B ----------------------------------|
G -4-4--7-7--6-6-6-------2----------| "It goes down the same as the
D -2-2--5-5--4-4-4--4-4--0----------| thousand before..."
A ------------------2-2-------------|
E ----------------------------------|

From: 94418290@hector.unil.ch (Laurent Haug)

I bought the OffSpring's CD a week ago, and I maybe have the tabs of their hit.
Please tell me if something's wrong.

Intro :

Drums
then:

------------
------------
------------
---5-5-5--- play the harmonics here
---5-5-5---
---5-5-5---

then:
Drums
then:
>

then:
B-D-F#-A four times
then:
----------------------------------
-----7-7-7-10------------------- (REM:if you play with 2 guitars, the first one
----------------8----------------- play B-D-F#-A 4 times again.)
----------------------------------
----------------------------------
----------------------------------

then ("oriental melody") with a crunch sound:
-----------------------------------------------------------------
-----------------------------------------------------------------
-----------------------------------------------------------------
-----------------slide------------------------------------------ (four times)
-----------6-7-(8)-9-7-6--------------------------------------
------7-8------------------8-7-7-8-7-------------------------

then: ("It's like the latest fashion")
----/
B-F#-A ) four times /-------verses
B-D-F#-A ) \
---\
then: (bridge)

E-G-F#-D Two times
B-F#-A
B-D-F#-A
F#
(he said to tie your own rope...)

then: (chorus)

B-D-F#-A (4.25 times)
(hey man your talking back to me ?)
B-D-F#-A (4.25 times)
(hey man you're disrespecting me ?)

B-D-F#-A (2 times)
E-C
B-D-F#-A-F#
B-D-F#-A-B

then:
oriental melody until the end of the chorus

then:
oriental melody until end of chorus without "verses"




I hope there are not too much mistakes. But I can not bring my guitar in the
computers room of the university. So I don't remember exactly. But I think
everything is good exept the ----7-7-7-10 ----
----------------8--
Tunning: Nashville (E A D G B E)
The Offspring, Come Out And Play.
Tabbed by Scott, ZeldaSJT@aol.cm.

Come Out And Play by The Offspring
from the album Smash (1994 - Epitaph)
Tabbed by Scott (email-ZeldaSJT@aol.com)

I believe that this tab is correct. It is the best one I have seen for
this song. Most others are wrong or very confusing to a beginer. Thats
the main reason why I did this tab.

played over part 2 4X
INTRO part 1 4X part 2 4X guitar 2
E|-----------|---------------------|-----------------------|---7-7-7/10\\5--5---|
B|-----------|---------------------|-----------------------|---7-7-7/10\\5--5---|
G|-----------|---------7-7---------|----------7--7---------|-------------------|
D|-----------|---9-9-9-7-7-4-7-7---|---9-9-9--7--7-4-7-7---|-------------------|
A|---7-7-7---|---9-9-9-5-5-4-7-7---|---9-9-9--5--5-4-7-7---|-------------------|
E|---7-7-7---|---7-7-7-----2-5-5---|---7-7-7-------2-5-5---|-------------------|
| NATURAL |
\\_HARMONICS_/

4X (4th time only play brackets) 4X (4th time only play brackets)
VERSE guitar 1 guitar 2
E|-----------------------------------------| |--------------------------------|
B|-----------------------------------------| |--------------------------------|
G|---------------------------7-7-7---------| |--------------------------------|
D|---(9-9-9-4-4-4-7-7-9)-9-9-7-7-7-4-7-7---| |--(-----1-2/4\\2-1----)----------|
A|---(9-9-9-4-4-4-7-7-9)-9-9-5-5-5-4-7-7---| |--(2-3------------3-2)--2-3-2---|
E|---(7-7-7-2-2-2-5-5-7)-7-7-------2-5-5---| |--------------------------------|
\\___________palm-mute_____________/

4X
E|---------------------------------------|
B|---------------------------------------|
G|-------------------------7-7-7---------|
D|---9-9-9-4-4-4-7-7-9-9-9-7-7-7-4-7-7---|
A|---9-9-9-4-4-4-7-7-9-9-9-5-5-5-4-7-7---|
E|---7-7-7-2-2-2-5-5-7-7-7-------2-5-5---|
\\___________palm-mute___________/

PRE-CHORUS *=play8X
E|------------------------------------------------------------|
B|--------------------------------------------------------*---|
G|---9-9-9-9-12-12-12-12-11-11-11------------------------11---|
D|---9-9-9-9-12-12-12-12-11-11-11-9-9-12-9-9-9-4-4-4-7-7-11---|
A|---7-7-7-7-10-10-10-10--9--9--9-9-9-12-9-9-9-4-4-4-7-7--9---|
E|--------------------------------7-7-10-7-7-7-2-2-2-5-5------|
\\__palm-mute__/
(playthrough with
brackets 3rd X only)
CHORUS 3X



Suggest correction


What's this?

You can suggest a correction to this tab. Community and Mods will review your correction and vote to approve or reject it.




Tunning: Nashville (E A D G B E)
Artist: Offspring
Song: Come out and play
Tuning: Standard (E,A,D,G,B,e)
ftolone@hotmail.com

I made this tab thinkin about using only 1 guitar, but if you wanna play it with 2
guitars, share the riffs. Mail me any corrections, although i think it's 100% right

[Intro]

E|----------------------------------|
B|----------------------------------|
G|--9-------------------------------| During the
D|--9-------------------------------| begginig of the song
A|--7-------------------------------| play this note
E|----------------------------------|


[Pre-verse]

E|----------------------------------|
B|----------------------------------|
G|--4----7-----------4----7---------|
D|--4----7---4-7-----4----7---4-7---|
A|--2----5---4-7-----2----5---4-7---|
E|-----------2-5--------------2-5---|


[2nd pre-verse]

E|----------------------------------|
B|----------------------------------|
G|-11-11-11--14-14---9--------------|
D|-11-11-11--14-14---9--------------|
A|-9--9--9---12-12---7--------------|
E|----------------------------------|


[Egyptian riff]

E|----------------------------------|
B|----------------------------------|
G|----------------------------------|
D|----------------------------------|
A|-----6-7-9-7-6--------------------|
E|-7-8-----------8-7-8-7------------|


[Verse]

E|----------------------------------|
B|----------------------------------|
G|-4-4-------4-4--7-----------------| ALL PALM MUTED
D|-4-4--4-7--4-4--7--4-7------------|
A|-2-2--4-7--2-2--5--4-7------------|
E|------2-5----------2-5------------|


[Pre chorus]
(After this, play the verse once again, but add a A9 D11 G11 at the end of it)

E|----------------------------------|
B|----------------------------------|
G|-9-9--12-12--11-11-11-----7-------|
D|-9-9--12-12--11-11-11--9--7-------|
A|-7-7--10-10--9--9--9---9--5-------|
E|-----------------------7----------|


[Chorus]

E|----------------------------------|
B|----------------------------------|
G|--4----7-----------4----7---------| x6
D|--4----7---4-7-----4----7---4-7---|
A|--2----5---4-7-----2----5---4-7---|
E|-----------2-5--------------2-5---|


[Cont. chorus]

E|----------------------------------|
B|----------------------------------|
G|-9-9-9-9---5-5-5-5----------------|
D|-9-9-9-9---5-5-5-5----------------|
A|-7-7-7-7---3-3-3-3----------------|
E|----------------------------------|

E|----------------------------------|
B|----------------------------------|
G|--4----7-----------4----7-------4-|
D|--4----7---4-7-4---4----7---4-7-4-|
A|--2----5---4-7-4---2----5---4-7-2-|
E|-----------2-5-2------------2-5---|

ORDER

[INTRO]
[PRE VERSE]
[2nd PRE VERSE]
[EGYPTIAN]
[VERSE]
[PRE CHORUS]
[VERSE]
[CHORUS]
[Cont.chorus]
[EGYPTIAN]
[VERSE]
[PRE CHORUS]
[VERSE]
[CHORUS]
[Cont.chorus]
[EGYPTIAN]
[PRE CHORUS]
[VERSE]
[CHORUS]
[Cont.chorus]
Tunning: Nashville (E A D G B E)
The Offspring
Come Out and Play

Tuning: Standard

Intro:
E|------------|
B|------------|
G|------------|
D|-*5--*5--*5-|
A|-*5--*5--*5-|
E|-*5--*5--*5-|
PM . .

Pre Verse:
E|---------------|
B|---------------|
G|-4-4-4--7------| X4
D|-4-4-4--7--4-7-|
A|-2-2-2--5--4-7-|
E|-----------2-5-|

2nd Pre-Verse:
E|-------------------|
B|-------------------|
G|-11-11-11--14--9-9-| X4
D|-11-11-11--14--9-9-|
A|--9--9--9--12--7-7-|
E|-------------------|

Egyptian riff:
E|-------------------------|
B|-------------------------|
G|-------------------------| X4
D|-------------------------|
A|-----6-7-9-7-6-----------|
E|-7-8-----------8~~~8-8-7-|

Verse:
E|--------------|---------------|
B|--------------|---------------|
G|-4-4-4--------|-4-4-4--7------| X4
D|-4-4-4--4-4-7-|-4-4-4--7--4-7-|
A|-2-2-2--4-4-7-|-2-2-2--5--4-7-|
E|--------2-2-5-|-----------2-5-|
PM . . . . . . . . . . . .

Pre-Chorus:
E|------------------------------|
B|------------------------------|
G|-9-9--12-12--11-11-11---------| X2
D|-9-9--12-12--11-11-11--9--9-9-|
A|-7-7--10-10---9--9--9--9--9-9-|
E|-----------------------7--7-7-|

Verse:
E|--------------|---------------|
B|--------------|---------------|
G|-4-4-4--------|-4-4-4--7------|
D|-4-4-4--4-4-7-|-4-4-4--7--4-7-|
A|-2-2-2--4-4-7-|-2-2-2--5--4-7-|
E|--------2-2-5-|-----------2-5-|
PM . . . . . . . . . . . .

Bridge:
1 + 2 + 3 + 4 + 1 + 2 + 3 + 4 +
E|-----------------|-----------------|
B|-----------------|-----------------|
G|-9-9-9-9-9-9-9-9-|-9-9-9-9-9-9-9-9-|
D|-9-9-9-9-9-9-9-9-|-9-9-9-9-9-9-9-9-|
A|-7-7-7-7-7-7-7-7-|-7-7-7-7-7-7-7-7-|
E|-----------------|-----------------|

Chorus:
E|---------------|
B|---------------|
G|-4-4-4--7------| X2
D|-4-4-4--7--4-7-|
A|-2-2-2--5--4-7-|
E|-----------2-5-|
Chorus:
E|-----------------|
B|-----------------|
G|-4-4-4--7--------|
D|-4-4-4--7--4-7-4-|
A|-2-2-2--5--4-7-4-|
E|-----------2-5-2-|

Chorus:
E|---------------|
B|---------------|
G|-4-4-4--7------| X2
D|-4-4-4--7--4-7-|
A|-2-2-2--5--4-7-|
E|-----------2-5-|

Chorus:
E|-----------------|
B|-----------------|
G|-4-4-4--7------4-|
D|-4-4-4--7--4-7-4-|
A|-2-2-2--5--4-7-2-|
E|-----------2-5---|

Chorus:
E|---------------|
B|---------------|
G|-4-4-4--7------| X2
D|-4-4-4--7--4-7-|
A|-2-2-2--5--4-7-|
E|-----------2-5-|

2nd Bridge:
1 + 2 + 3 + 4 + 1 + 2 + 3 + 4 +
E|-----------------|-----------------|
B|-----------------|-----------------|
G|-9-9-9-9-9-9-9-9-|-5-5-5-5-5-5-5-5-|
D|-9-9-9-9-9-9-9-9-|-5-5-5-5-5-5-5-5-|
A|-7-7-7-7-7-7-7-7-|-3-3-3-3-3-3-3-3-|
E|-----------------|-----------------|

Chorus:
1-2-3-4
E|---------------------|-----------------|
B|---------------------|-----------------|
G|-4-4-4-7-------------|-4-4-4--7--------|
D|-4-4-4-7--4-7-2~~~~~~|-4-4-4--7--4-7-4-|
A|-2-2-2-5--4-7-2~~~~~~|-2-2-2--5--4-7-4-|
E|----------2-5-0~~~~~~|-----------2-5-2-|

Egyptian riff:
E|-------------------------|
B|-------------------------|
G|-------------------------| X4
D|-------------------------|
A|-----6-7-9-7-6-----------|
E|-7-8-----------8~~~8-8-7-|

Verse (With Egyptian Riff)
E|--------------|---------------|
B|--------------|---------------|
G|-4-4-4--------|-4-4-4--7------| X8
D|-4-4-4--4-4-7-|-4-4-4--7--4-7-|
A|-2-2-2--4-4-7-|-2-2-2--5--4-7-|
E|--------2-2-5-|-----------2-5-|
PM . . . . . . . . . . . .

Pre-Chorus:
E|------------------------------|
B|------------------------------|
G|-9-9--12-12--11-11-11---------| X2
D|-9-9--12-12--11-11-11--9--9-9-|
A|-7-7--10-10---9--9--9--9--9-9-|
E|-----------------------7--7-7-|

Verse
Bridge
Chorus loop
2nd Bridge
Chorus
Egyptian Riff
Verse (With Egyptian Riff)
Pre-Chorus
Verse
Bridge
Chorus Loop


That's It...\m/(- -)\m/
Tunning: Standard (E A D G B e)
Song By The OffSpring, this is a tab made up by me Chris Yeldob that
is exactly how the song goes, u'll see

AIM=GrimmReaper201 (if you need any help)

Please listen to the song or at least have the song on your computer
before trying to play this

table of meanings
X=sctrach


[Intro]
(After you have played those and the beating is over it says
"You Gotta Keep em Separated" )
e|-----------------------------------------------------|
b|-----------------------------------------------------|
g|--------------------------9-9-9----------------------|
D|--------------------------9-9-9----------------------|
A|-----------------------------------------------------|
E|-----------------------------------------------------|

(Guitar 1) Rhythm: (Repeat 8x)
e|-----------------------------|
b|-----------------------------|
g|---4-----X---7---X-----------|
D|---4-----X---7---X---4---7---|
A|---2-----X---5---X---4---7---|
E|---------------------2---5---|

(Come in after Guitar 1
(Guitar 2) has played 4x and then play this 4x)
e|-----------------------------------|
b|-----------------------------------|
g|--11--11--11----14--14----9--9--9--|
D|--9---9---9-----12--12----7--7--7--|
A|-----------------------------------|
E|-----------------------------------|

Lead Guitar riff (Repeat 4x) (Repeat 3x)
e|------------------------------|-----------|
b|------------------------------|-----------|
g|------------------------------|-----------|
D|--------1--2--2/4/2--1--------|-----------|
A|--2--3------------------3--2--|--2--3--2--|
E|------------------------------|-----------|



[Verse]
(Repeat 4x)
e|-----------------------------------------------------|
b|-----------------------------------------------------|
g|--4--4--4-----------------4--4--4---7--X-------------|
D|--4--4--4---4--4--4---7---4--4--4---7--X---4---7-----|
A|--2--2--2---4--4--4---7---2--2--2---5--X---4---7-----|
E|------------2--2--2---5--------------------2---5-----|

(Repeat 2x)
e|--------------------------------------------------|
b|--------------------------------------------------|
g|--9--9--9----12--12--12----11--11--11-------------|
D|--9--9--9----12--12--12----11--11--11----9--9--9--|
A|--7--7--7----10--10--10----9---9---9-----9--9--9--|
E|-----------------------------------------7--7--7--|


e|-----------------------------------------------------|
b|-----------------------------------------------------|
g|--4--4--4-----------------4--4--4---7--X-------------|
D|--4--4--4---4--4--4---7---4--4--4---7--X---4---7-----|
A|--2--2--2---4--4--4---7---2--2--2---5--X---4---7-----|
E|------------2--2--2---5--------------------2---5-----|


e|-----------------------------------------------|
b|-----------------------------------------------|
g|--11---11---11---11---11-11-11-11-11-11-11-11--|
D|--11---11---11---11---11-11-11-11-11-11-11-11--|
A|--9----9----9----9----9--9--9--9--9--9--9--9---|
E|-----------------------------------------------|


(Repeat 3x and on last time play the note between the 2 bars
and say "Keep Em Separated")
e|----------------------------|-----|
b|----------------------------|-----|
g|---4-----X---7---X----------|--4--|
D|---4-----X---7---X---4---7--|--4--|
A|---2-----X---5---X---4---7--|--2--|
E|---------------------2---5--|-----|


(Repeat 3x and on last time play the note between the 2 bars
and say "Keep Em Separated")
e|----------------------------|-----|
b|----------------------------|-----|
g|---4-----X---7---X----------|--4--|
D|---4-----X---7---X---4---7--|--4--|
A|---2-----X---5---X---4---7--|--2--|
E|---------------------2---5--|-----|

(Repeat 2x)
e|-----------------------------|
b|-----------------------------|
g|---4-----X---7---X-----------|
D|---4-----X---7---X---4---7---|
A|---2-----X---5---X---4---7---|
E|---------------------2---5---|


e|------------------------------|
b|------------------------------|
g|--12--12--12--12--12--12--12--|
D|--12--12--12--12--12--12--12--|
A|--10--10--10--10--10--10--10--|
E|------------------------------|


e|--------------------------------------------------|
b|--5--5--5--5--5--5--5----4--4--4------------------|
D|--5--5--5--5--5--5--5----4--4--4----4--4--4----7--|
A|--3--3--3--3--3--3--3----2--2--2----4--4--4----7--|
E|------------------------------------2--2--2----5--|


e|-------------------------------------------------------|
b|-------------------------------------------------------|
g|-------------------------4--4--4--------------------4--|
D|--4--4--4--4--4--4--4----4--4--4----4--4--4----7----4--|
A|--4--4--4--4--4--4--4----2--2--2----4--4--4----7----2--|
E|--2--2--2--2--2--2--2---------------2--2--2----5-------|


Lead Guitar riff (Repeat 4x) (Repeat 3x)
e|------------------------------|-----------|
b|------------------------------|-----------|
g|------------------------------|-----------|
D|--------1--2--2/4/2--1--------|-----------|
A|--2--3------------------3--2--|--2--3--2--|
E|------------------------------|-----------|


[Verse]
(Repeat 4x)
e|-----------------------------------------------------|
b|-----------------------------------------------------|
g|--4--4--4-----------------4--4--4---7--X-------------|
D|--4--4--4---4--4--4---7---4--4--4---7--X---4---7-----|
A|--2--2--2---4--4--4---7---2--2--2---5--X---4---7-----|
E|------------2--2--2---5--------------------2---5-----|

(Repeat 2x)
e|--------------------------------------------------|
b|--------------------------------------------------|
g|--9--9--9----12--12--12----11--11--11-------------|
D|--9--9--9----12--12--12----11--11--11----9--9--9--|
A|--7--7--7----10--10--10----9---9---9-----9--9--9--|
E|-----------------------------------------7--7--7--|


e|-----------------------------------------------------|
b|-----------------------------------------------------|
g|--4--4--4-----------------4--4--4---7--X-------------|
D|--4--4--4---4--4--4---7---4--4--4---7--X---4---7-----|
A|--2--2--2---4--4--4---7---2--2--2---5--X---4---7-----|
E|------------2--2--2---5--------------------2---5-----|


e|-----------------------------------------------|
b|-----------------------------------------------|
g|--11---11---11---11---11-11-11-11-11-11-11-11--|
D|--11---11---11---11---11-11-11-11-11-11-11-11--|
A|--9----9----9----9----9--9--9--9--9--9--9--9---|
E|-----------------------------------------------|


(Repeat 3x and on last time play the note between the 2 bars
and say "Keep Em Separated")
e|----------------------------|-----|
b|----------------------------|-----|
g|---4-----X---7---X----------|--4--|
D|---4-----X---7---X---4---7--|--4--|
A|---2-----X---5---X---4---7--|--2--|
E|---------------------2---5--|-----|


(Repeat 3x and on last time play the note between the 2 bars
and say "Keep Em Separated")
e|----------------------------|-----|
b|----------------------------|-----|
g|---4-----X---7---X----------|--4--|
D|---4-----X---7---X---4---7--|--4--|
A|---2-----X---5---X---4---7--|--2--|
E|---------------------2---5--|-----|

(Repeat 2x)
e|-----------------------------|
b|-----------------------------|
g|---4-----X---7---X-----------|
D|---4-----X---7---X---4---7---|
A|---2-----X---5---X---4---7---|
E|---------------------2---5---|


e|------------------------------|
b|------------------------------|
g|--12--12--12--12--12--12--12--|
D|--12--12--12--12--12--12--12--|
A|--10--10--10--10--10--10--10--|
E|------------------------------|


e|--------------------------------------------------|
b|--5--5--5--5--5--5--5----4--4--4------------------|
D|--5--5--5--5--5--5--5----4--4--4----4--4--4----7--|
A|--3--3--3--3--3--3--3----2--2--2----4--4--4----7--|
E|------------------------------------2--2--2----5--|


e|-------------------------------------------------------|
b|-------------------------------------------------------|
g|-------------------------4--4--4--------------------4--|
D|--4--4--4--4--4--4--4----4--4--4----4--4--4----7----4--|
A|--4--4--4--4--4--4--4----2--2--2----4--4--4----7----2--|
E|--2--2--2--2--2--2--2---------------2--2--2----5-------|


Lead Guitar riff (Repeat 4x)
e|---------------------------------------|
b|---------------------------------------|
g|---------------------------------------|
D|--------1--2--2/4/2--1-----------------|
A|--2--3------------------3--2--2--3--2--|
E|---------------------------------------|


(Repeat 2x)
e|--------------------------------------------------|
b|--------------------------------------------------|
g|--9--9--9----12--12--12----11--11--11-------------|
D|--9--9--9----12--12--12----11--11--11----9--9--9--|
A|--7--7--7----10--10--10----9---9---9-----9--9--9--|
E|-----------------------------------------7--7--7--|


e|-----------------------------------------------------|
b|-----------------------------------------------------|
g|--4--4--4-----------------4--4--4---7--X-------------|
D|--4--4--4---4--4--4---7---4--4--4---7--X---4---7-----|
A|--2--2--2---4--4--4---7---2--2--2---5--X---4---7-----|
E|------------2--2--2---5--------------------2---5-----|


e|-----------------------------------------------|
b|-----------------------------------------------|
g|--11---11---11---11---11-11-11-11-11-11-11-11--|
D|--11---11---11---11---11-11-11-11-11-11-11-11--|
A|--9----9----9----9----9--9--9--9--9--9--9--9---|
E|-----------------------------------------------|


(Repeat 3x and on last time play the note between the 2 bars
and say "Keep Em Separated")
e|----------------------------|-----|
b|----------------------------|-----|
g|---4-----X---7---X----------|--4--|
D|---4-----X---7---X---4---7--|--4--|
A|---2-----X---5---X---4---7--|--2--|
E|---------------------2---5--|-----|


(Repeat 3x and on last time play the note between the 2 bars
and say "Keep Em Separated")
e|----------------------------|-----|
b|----------------------------|-----|
g|---4-----X---7---X----------|--4--|
D|---4-----X---7---X---4---7--|--4--|
A|---2-----X---5---X---4---7--|--2--|
E|---------------------2---5--|-----|

(Repeat 2x)
e|-----------------------------|
b|-----------------------------|
g|---4-----X---7---X-----------|
D|---4-----X---7---X---4---7---|
A|---2-----X---5---X---4---7---|
E|---------------------2---5---|


e|------------------------------|
b|------------------------------|
g|--12--12--12--12--12--12--12--|
D|--12--12--12--12--12--12--12--|
A|--10--10--10--10--10--10--10--|
E|------------------------------|


e|--------------------------------------------------|
b|--5--5--5--5--5--5--5----4--4--4------------------|
D|--5--5--5--5--5--5--5----4--4--4----4--4--4----7--|
A|--3--3--3--3--3--3--3----2--2--2----4--4--4----7--|
E|------------------------------------2--2--2----5--|


e|-------------------------------------------------------|
b|-------------------------------------------------------|
g|-------------------------4--4--4--------------------4--|
D|--4--4--4--4--4--4--4----4--4--4----4--4--4----7----4--|
A|--4--4--4--4--4--4--4----2--2--2----4--4--4----7----2--|
E|--2--2--2--2--2--2--2---------------2--2--2----5-------|


***********************************************

x - dead note

***********************************************


there that is the whole song just play it in that order
its not very hard

if you would like to know the lyrics go to www.lyrics.com and
search for offspring and then Come Out and Play, l8r mon
Tunning: Standard (E A D G B e)
Offspring - Come Out And Play

INTRO PART 1 (clean)
|---------------------------------------------------------------------------|
|---------------------------------------------------------------------------|
|---------------------------------------------------------------------------|
|---------------------------------------------------------------------------|
|---------------------------------------------------------------------------|
|-----------------12*-12*-12*-----------------------------------------------|
drums (* = harmonics) drums You gotta keep 'em separated



INTRO PART 2 (dist.)
|-------------| |-------------------------------|
|-------------| |-------------------------------|
|-4-4-x-7-----| |---11-11-11-14-9---------------|
|-4-4-x-7-4/7-| |-------------------------------|
|-2-2-x-5-4/7-| |-------------------------------|
|---------2/5-| |-------------------------------|
guitar 1 guitar 2

EGYPTIAN RIFF (clean)

|------------------------|
|------------------------|
|------------------------|
|-----1-2-4-2-1----------|
|-2-3-----------3-2-2-3-2|
|------------------------|

|------------------------|
|------------------------|
|------------------------|
|-----1-2-4-2-1----------|
|-2-3-----------3-2-2-3-2|
|------------------------|

|------------------------|
|------------------------|
|------------------------|
|-----1-2-4-2-1----------|
|-2-3-----------3-2-2-3-2|
|------------------------|

|-------------------|
|-------------------|
|-------------------|
|-----1-2-4-2-1-----|
|-2-3-----------3-2-|
|-------------------|

VERSE (dist.)
|-------------|------------|
|-------------|------------|
|-4-4-4-------|-4-4-4-7-x--|
|-4-4-4-4-x-7-|-4-4-4-7-x-7|
|-2-2-2-4-x-7-|-2-2-2-5-x-7|
|-------2-x-5-|-----------5|

|-------------|------------|
|-------------|------------|
|-4-4-4-------|-4-4-4-7-x--|
|-4-4-4-4-x-7-|-4-4-4-7-x-7|
|-2-2-2-4-x-7-|-2-2-2-5-x-7|
|-------2-x-5-|-----------5|

|-------------|------------|
|-------------|------------|
|-4-4-4-------|-4-4-4-7-x--|
|-4-4-4-4-x-7-|-4-4-4-7-x-7|
|-2-2-2-4-x-7-|-2-2-2-5-x-7|
|-------2-x-5-|-----------5|

|-------------|------------|
|-------------|------------|
|-4-4-4-------|-4-4-4-7-x--|
|-4-4-4-4-x-7-|-4-4-4-7-x-7|
|-2-2-2-4-x-7-|-2-2-2-5-x-7|
|-------2-x-5-|-----------5|

Palm Mute the whole thing.


BRIDGE (dist.)
|--------------------------------------|
|--------------------------------------|
|--------------------------------------|
|-9-9-9-9-12-12-12-12-11-12-11-4-4-/-7-|
|-9-9-9-9-12-12-10-12-11-12-11-4-4-/-7-|
|-7-7-7-7-10-10-10-10-9--10-9--2-2-/-5-|

|--------------------------------------|
|--------------------------------------|
|--------------------------------------|
|-9-9-9-9-12-12-12-12-11-12-11-4-4-/-7-|
|-9-9-9-9-12-12-10-12-11-12-11-4-4-/-7-|
|-7-7-7-7-10-10-10-10-9--10-9--2-2-/-5-|

|-------------|------------|-----------------|
|-------------|------------|-----------------|
|-4-4-4-------|-4-4-4-7-x--|-444444444444444-|
|-4-4-4-4-x-7-|-4-4-4-7-x-7|-444444444444444-|
|-2-2-2-4-x-7-|-2-2-2-5-x-7|-222222222222222-|
|-------2-x-5-|-----------5|-----------------|
PM . . . . . . . . . . . .


CHORUS (dist.)

|-------------|-------------|---------------|
|-------------|-------------|---------------|
|-4-4-x-7-----|-4-4-x-7-----|-4-4-x-7-----4-|
|-4-4-x-7-4/7-|-4-4-x-7-4/7-|-4-4-x-7-4/7-4-|
|-2-2-x-5-4/7-|-2-2-x-5-4/7-|-2-2-x-5-4/7-2-|
|---------2/5-|---------2/5-|---------2/5---|

pause

|-------------|-------------|---------------|
|-------------|-------------|---------------|
|-4-4-x-7-----|-4-4-x-7-----|-4-4-x-7-----4-|
|-4-4-x-7-4/7-|-4-4-x-7-4/7-|-4-4-x-7-4/7-4-|
|-2-2-x-5-4/7-|-2-2-x-5-4/7-|-2-2-x-5-4/7-2-|
|---------2/5-|---------2/5-|---------2/5---|

pause (drum fill)


POST-CHORUS (dist.)

|-------------|
|-------------|
|-4-4-x-7-----|
|-4-4-x-7-4/7-|
|-2-2-x-5-4/7-|
|---------2/5-|

|-------------|-------------------|
|-------------|-------------------|
|-4-4-x-7-----|-99999999-55555555-|
|-4-4-x-7-4/7-|-99999999-55555555-|
|-2-2-x-5-4/7-|-77777777-33333333-|
|---------2/5-|-------------------|

|-------------|----------|
|-------------|----------|
|-4-4-x-7-----|----------|
|-4-4-x-7-4/7-|-22222222-|
|-2-2-x-5-4/7-|-22222222-|
|---------2/5-|-00000000-|

|-------------|---|
|-------------|---|
|-4-4-x-7-----|-4-|
|-4-4-x-7-4/7-|-4-|
|-2-2-x-5-4/7-|-2-|
|---------2/5-|---|

EGYPTIAN RIFF (clean)

|------------------------|
|------------------------|
|------------------------|
|-----1-2-4-2-1----------|
|-2-3-----------3-2-2-3-2|
|------------------------|

|------------------------|
|------------------------|
|------------------------|
|-----1-2-4-2-1----------|
|-2-3-----------3-2-2-3-2|
|------------------------|

|------------------------|
|------------------------|
|------------------------|
|-----1-2-4-2-1----------|
|-2-3-----------3-2-2-3-2|
|------------------------|

|-------------------|
|-------------------|
|-------------------|
|-----1-2-4-2-1-----|
|-2-3-----------3-2-|
|-------------------|

VERSE (dist.)
|-------------|------------|
|-------------|------------|
|-4-4-4-------|-4-4-4-7-x--|
|-4-4-4-4-x-7-|-4-4-4-7-x-7|
|-2-2-2-4-x-7-|-2-2-2-5-x-7|
|-------2-x-5-|-----------5|

|-------------|------------|
|-------------|------------|
|-4-4-4-------|-4-4-4-7-x--|
|-4-4-4-4-x-7-|-4-4-4-7-x-7|
|-2-2-2-4-x-7-|-2-2-2-5-x-7|
|-------2-x-5-|-----------5|

|-------------|------------|
|-------------|------------|
|-4-4-4-------|-4-4-4-7-x--|
|-4-4-4-4-x-7-|-4-4-4-7-x-7|
|-2-2-2-4-x-7-|-2-2-2-5-x-7|
|-------2-x-5-|-----------5|

|-------------|------------|
|-------------|------------|
|-4-4-4-------|-4-4-4-7-x--|
|-4-4-4-4-x-7-|-4-4-4-7-x-7|
|-2-2-2-4-x-7-|-2-2-2-5-x-7|
|-------2-x-5-|-----------5|

BRIDGE (dist.)
|--------------------------------------|
|--------------------------------------|
|--------------------------------------|
|-9-9-9-9-12-12-12-12-11-12-11-4-4-/-7-|
|-9-9-9-9-12-12-10-12-11-12-11-4-4-/-7-|
|-7-7-7-7-10-10-10-10-9--10-9--2-2-/-5-|

|--------------------------------------|
|--------------------------------------|
|--------------------------------------|
|-9-9-9-9-12-12-12-12-11-12-11-4-4-/-7-|
|-9-9-9-9-12-12-10-12-11-12-11-4-4-/-7-|
|-7-7-7-7-10-10-10-10-9--10-9--2-2-/-5-|

|-------------|------------|-----------------|
|-------------|------------|-----------------|
|-4-4-4-------|-4-4-4-7-x--|-444444444444444-|
|-4-4-4-4-x-7-|-4-4-4-7-x-7|-444444444444444-|
|-2-2-2-4-x-7-|-2-2-2-5-x-7|-222222222222222-|
|-------2-x-5-|-----------5|-----------------|
PM . . . . . . . . . . . .

CHORUS (dist.)

|-------------|-------------|---------------|
|-------------|-------------|---------------|
|-4-4-x-7-----|-4-4-x-7-----|-4-4-x-7-----4-|
|-4-4-x-7-4/7-|-4-4-x-7-4/7-|-4-4-x-7-4/7-4-|
|-2-2-x-5-4/7-|-2-2-x-5-4/7-|-2-2-x-5-4/7-2-|
|---------2/5-|---------2/5-|---------2/5---|

pause

|-------------|-------------|---------------|
|-------------|-------------|---------------|
|-4-4-x-7-----|-4-4-x-7-----|-4-4-x-7-----4-|
|-4-4-x-7-4/7-|-4-4-x-7-4/7-|-4-4-x-7-4/7-4-|
|-2-2-x-5-4/7-|-2-2-x-5-4/7-|-2-2-x-5-4/7-2-|
|---------2/5-|---------2/5-|---------2/5---|

pause (drum fill)


POST-CHORUS (dist.)

|-------------|
|-------------|
|-4-4-x-7-----|
|-4-4-x-7-4/7-|
|-2-2-x-5-4/7-|
|---------2/5-|

|-------------|-------------------|
|-------------|-------------------|
|-4-4-x-7-----|-99999999-55555555-|
|-4-4-x-7-4/7-|-99999999-55555555-|
|-2-2-x-5-4/7-|-77777777-33333333-|
|---------2/5-|-------------------|

|-------------|----------|
|-------------|----------|
|-4-4-x-7-----|----------|
|-4-4-x-7-4/7-|-22222222-|
|-2-2-x-5-4/7-|-22222222-|
|---------2/5-|-00000000-|

|-------------|---|
|-------------|---|
|-4-4-x-7-----|-4-|
|-4-4-x-7-4/7-|-4-|
|-2-2-x-5-4/7-|-2-|
|---------2/5-|---|

EGYPTIAN RIFF (clean)

|------------------------|
|------------------------|
|------------------------|
|-----1-2-4-2-1----------|
|-2-3-----------3-2-2-3-2|
|------------------------|

|------------------------|
|------------------------|
|------------------------|
|-----1-2-4-2-1----------|
|-2-3-----------3-2-2-3-2|
|------------------------|

|------------------------|
|------------------------|
|------------------------|
|-----1-2-4-2-1----------|
|-2-3-----------3-2-2-3-2|
|------------------------|

|------------------------|
|------------------------|
|------------------------|
|-----1-2-4-2-1----------|
|-2-3-----------3-2-2-3-2|
|------------------------|

BRIDGE (dist.)
|--------------------------------------|
|--------------------------------------|
|--------------------------------------|
|-9-9-9-9-12-12-12-12-11-12-11-4-4-/-7-|
|-9-9-9-9-12-12-10-12-11-12-11-4-4-/-7-|
|-7-7-7-7-10-10-10-10-9--10-9--2-2-/-5-|

|--------------------------------------|
|--------------------------------------|
|--------------------------------------|
|-9-9-9-9-12-12-12-12-11-12-11-4-4-/-7-|
|-9-9-9-9-12-12-10-12-11-12-11-4-4-/-7-|
|-7-7-7-7-10-10-10-10-9--10-9--2-2-/-5-|

|-------------|------------|-----------------|
|-------------|------------|-----------------|
|-4-4-4-------|-4-4-4-7-x--|-444444444444444-|
|-4-4-4-4-x-7-|-4-4-4-7-x-7|-444444444444444-|
|-2-2-2-4-x-7-|-2-2-2-5-x-7|-222222222222222-|
|-------2-x-5-|-----------5|-----------------|
PM . . . . . . . . . . . .

CHORUS (dist.)

|-------------|-------------|---------------|
|-------------|-------------|---------------|
|-4-4-x-7-----|-4-4-x-7-----|-4-4-x-7-----4-|
|-4-4-x-7-4/7-|-4-4-x-7-4/7-|-4-4-x-7-4/7-4-|
|-2-2-x-5-4/7-|-2-2-x-5-4/7-|-2-2-x-5-4/7-2-|
|---------2/5-|---------2/5-|---------2/5---|

pause

|-------------|-------------|---------------|
|-------------|-------------|---------------|
|-4-4-x-7-----|-4-4-x-7-----|-4-4-x-7-----4-|
|-4-4-x-7-4/7-|-4-4-x-7-4/7-|-4-4-x-7-4/7-4-|
|-2-2-x-5-4/7-|-2-2-x-5-4/7-|-2-2-x-5-4/7-2-|
|---------2/5-|---------2/5-|---------2/5---|

pause (drum fill)


POST-CHORUS (dist.)

|-------------|
|-------------|
|-4-4-x-7-----|
|-4-4-x-7-4/7-|
|-2-2-x-5-4/7-|
|---------2/5-|

|-------------|-------------------|
|-------------|-------------------|
|-4-4-x-7-----|-99999999-55555555-|
|-4-4-x-7-4/7-|-99999999-55555555-|
|-2-2-x-5-4/7-|-77777777-33333333-|
|---------2/5-|-------------------|

|-------------|----------|
|-------------|----------|
|-4-4-x-7-----|----------|
|-4-4-x-7-4/7-|-22222222-|
|-2-2-x-5-4/7-|-22222222-|
|---------2/5-|-00000000-|

|-------------|---|
|-------------|---|
|-4-4-x-7-----|-4-|
|-4-4-x-7-4/7-|-4-|
|-2-2-x-5-4/7-|-2-|
|---------2/5-|---|

Tunning: Standard (E A D G B e)
-------------------------------------------------------------------------------
COME OUT AND PLAY (KEEP 'EM SEPARATED) - The Offspring
-------------------------------------------------------------------------------
Tabbed by: Ryan Tsang
Email: sidewinder321@gmail.com

Tuning: Standard (eBGDAE)

Hey everyone this is my first tab and I'm positive this is 100% correct.
Email me at sidewinder321@gmail.com for any corrections and/or feedback.

----------------------------------------------------------------------------

(0:06) distorted/clean (I don't think there's much of a difference)
e|--------------------------------|
B|--------------------------------|
G|-----9-9-9----------------------|
D|-----9-9-9----------------------|
A|--------------------------------|
E|--------------------------------|
x

(0:13) distorted
e|-------------------------------|
B|-------------------------------|
G|-------(x)---7---(X)-----------| (x4)
D|---9---(x)---7---(X)---4---7---|
A|---9---(x)---5---(X)---4---7---|
E|---7-------------------2---5---|

(0:19) distorted
e|-----------------------------|
B|-----------------------------|
G|--11-11-11---14-14----9-9----| (x4)
D|--9--9--9----12-12----7-7----|
A|-----------------------------|
E|-----------------------------|

(0:25) clean
e|-----------------------------------------|
B|-----------------------------------------|
G|-----------------------------------------|
D|--------1--2--2/4/2--1-------------------| (x3)
A|--2--3------------------3--2----2--3--2--|
E|-----------------------------------------|

(0:34) clean
e|-----------------------------------------|
B|-----------------------------------------|
G|-----------------------------------------|
D|--------1--2--2/4/2--1-------------------| (x1)
A|--2--3------------------3--2-------------|
E|-----------------------------------------|

(0:38) distorted
e|--------------------------------------|
B|--------------------------------------|
G|-------------------------7------------| (x4)
D|---9-----4-----7---9-----7---4-7------|
A|---9-----4-----7---9-----5-5-4-7------|
E|---7-7-7-2-2-225-557-7-7-----2-5-55---|
x x x xx xx x x x x x xx

(0:50) distorted
e|----------------------------------------------|
B|----------------------------------------------|
G|--9----9-xx-12----12-xx-11--11--11---------7--| (x2)
D|--9----9-xx-12----12-xx-11--11--11--9----9-7--|
A|--7----7-xx-10----10-xx-9---9---9---9----9-5--|
E|------------------------------------7----7----|

(0:56) distorted
e|--------------------------------------|
B|--------------------------------------|
G|-------------------------7------------| (x1)
D|---9-----4-----7---9-----7---4-7------|
A|---9-----4-----7---9-----5-5-4-7------|
E|---7-7-7-2-2-225-557-7-7-----2-5-55---|
x x x xx xx x x x x x xx

(0:59) distorted
e|-----------------------------------------------------|
b|-----------------------------------------------------|
g|--11----11-11-11-11-11-11-11-11-11-11-11-11-11-11-11-| (x1)
D|--11----11-11-11-11-11-11-11-11-11-11-11-11-11-11-11-|
A|--9-----9--9--9--9--9--9--9--9--9--9--9--9--9--9--9--|
E|-----------------------------------------------------|

(1:02) distorted
e|-------------------------------|
B|-------------------------------|
G|-------(x)---7---(X)-----------| (x3)
D|---9---(x)---7---(X)---4---7---|
A|---9---(x)---5---(X)---4---7---|
E|---7-------------------2---5---|

(1:06) distorted
e|-----|
B|-----|
G|-----| (x1)
D|--9--|
A|--9--|
E|--7--|

(1:08) distorted
e|-------------------------------|
B|-------------------------------|
G|-------(x)---7---(X)-----------| (x3)
D|---9---(x)---7---(X)---4---7---|
A|---9---(x)---5---(X)---4---7---|
E|---7-------------------2---5---|

(1:12) distorted
e|-----|
B|-----|
G|-----| (x1)
D|--9--|
A|--9--|
E|--7--|

(1:14) distorted
e|-------------------------------|
B|-------------------------------|
G|-------(x)---7---(X)-----------| (x2)
D|---9---(x)---7---(X)---4---7---|
A|---9---(x)---5---(X)---4---7---|
E|---7-------------------2---5---|

(1:17) distorted
e|------------------------------------------|
B|------------------------------------------|
G|--12-12-12-12-12-12-12-12-5-5-5-5-5-5-5-5-| (x1)
D|--12-12-12-12-12-12-12-12-5-5-5-5-5-5-5-5-|
A|--10-10-10-10-10-10-10-10-3-3-3-3-3-3-3-3-|
E|------------------------------------------|

(1:20) distorted
e|-----------------------------------------------------|
B|-----------------------------------------------------|
G|-------(x)---7---(X)---------------------------------| (x1)
D|---9---(x)---7---(X)---4---7---4-4-4-4-4-4-4-4-4-7-7-|
A|---9---(x)---5---(X)---4---7---4-4-4-4-4-4-4-4-4-7-7-|
E|---7-------------------2---5---2-2-2-2-2-2-2-2-2-5-5-|

(1:23) distorted
e|----------------------------------|
B|----------------------------------|
G|-------(x)---7---(X)--------------| (x1)
D|---9---(x)---7---(X)---4---7----9-|
A|---9---(x)---5---(X)---4---7----9-|
E|---7-------------------2---5----7-|

(1:26) clean
e|-----------------------------------------|
B|-----------------------------------------|
G|-----------------------------------------|
D|--------1--2--2/4/2--1-------------------| (x3)
A|--2--3------------------3--2----2--3--2--|
E|-----------------------------------------|

(1:35) clean
e|-----------------------------------------|
B|-----------------------------------------|
G|-----------------------------------------|
D|--------1--2--2/4/2--1-------------------| (x1)
A|--2--3------------------3--2-------------|
E|-----------------------------------------|

(1:38) distorted
e|--------------------------------------|
B|--------------------------------------|
G|-------------------------7------------| (x4)
D|---9-----4-----7---9-----7---4-7------|
A|---9-----4-----7---9-----5-5-4-7------|
E|---7-7-7-2-2-225-557-7-7-----2-5-55---|
x x x xx xx x x x x x xx

(1:50) distorted
e|----------------------------------------------|
B|----------------------------------------------|
G|--9----9-xx-12----12-xx-11--11--11---------7--| (x2)
D|--9----9-xx-12----12-xx-11--11--11--9----9-7--|
A|--7----7-xx-10----10-xx-9---9---9---9----9-5--|
E|------------------------------------7----7----|

(1:56) distorted
e|--------------------------------------|
B|--------------------------------------|
G|-------------------------7------------| (x1)
D|---9-----4-----7---9-----7---4-7------|
A|---9-----4-----7---9-----5-5-4-7------|
E|---7-7-7-2-2-225-557-7-7-----2-5-55---|
x x x xx xx x x x x x xx

(1:59) distorted
e|-----------------------------------------------------|
b|-----------------------------------------------------|
g|--11----11-11-11-11-11-11-11-11-11-11-11-11-11-11-11-| (x1)
D|--11----11-11-11-11-11-11-11-11-11-11-11-11-11-11-11-|
A|--9-----9--9--9--9--9--9--9--9--9--9--9--9--9--9--9--|
E|-----------------------------------------------------|

(2:02) distorted
e|-------------------------------|
B|-------------------------------|
G|-------(x)---7---(X)-----------| (x3)
D|---9---(x)---7---(X)---4---7---|
A|---9---(x)---5---(X)---4---7---|
E|---7-------------------2---5---|

(2:07) distorted
e|-----|
B|-----|
G|-----| (x1)
D|--9--|
A|--9--|
E|--7--|

(2:09) distorted
e|-------------------------------|
B|-------------------------------|
G|-------(x)---7---(X)-----------| (x3)
D|---9---(x)---7---(X)---4---7---|
A|---9---(x)---5---(X)---4---7---|
E|---7-------------------2---5---|

(2:13) distorted
e|-----|
B|-----|
G|-----| (x1)
D|--9--|
A|--9--|
E|--7--|

(2:15) distorted
e|-------------------------------|
B|-------------------------------|
G|-------(x)---7---(X)-----------| (x2)
D|---9---(x)---7---(X)---4---7---|
A|---9---(x)---5---(X)---4---7---|
E|---7-------------------2---5---|

(2:18) distorted
e|------------------------------------------|
B|------------------------------------------|
G|--12-12-12-12-12-12-12-12-5-5-5-5-5-5-5-5-| (x1)
D|--12-12-12-12-12-12-12-12-5-5-5-5-5-5-5-5-|
A|--10-10-10-10-10-10-10-10-3-3-3-3-3-3-3-3-|
E|------------------------------------------|

(2:21) distorted
e|-----------------------------------------------------|
B|-----------------------------------------------------|
G|-------(x)---7---(X)---------------------------------| (x1)
D|---9---(x)---7---(X)---4---7---4-4-4-4-4-4-4-4-4-7-7-|
A|---9---(x)---5---(X)---4---7---4-4-4-4-4-4-4-4-4-7-7-|
E|---7-------------------2---5---2-2-2-2-2-2-2-2-2-5-5-|

(2:24) distorted
e|----------------------------------|
B|----------------------------------|
G|-------(x)---7---(X)--------------| (x1)
D|---9---(x)---7---(X)---4---7----9-|
A|---9---(x)---5---(X)---4---7----9-|
E|---7-------------------2---5----7-|

(2:27) clean
e|-----------------------------------------|
B|-----------------------------------------|
G|-----------------------------------------|
D|--------1--2--2/4/2--1-------------------| (x4)
A|--2--3------------------3--2----2--3--2--|
E|-----------------------------------------|

(2:39) distorted
e|----------------------------------------------|
B|----------------------------------------------|
G|--9----9-xx-12----12-xx-11--11--11---------7--| (x2)
D|--9----9-xx-12----12-xx-11--11--11--9----9-7--|
A|--7----7-xx-10----10-xx-9---9---9---9----9-5--|
E|------------------------------------7----7----|

(2:45) distorted
e|--------------------------------------|
B|--------------------------------------|
G|-------------------------7------------| (x1)
D|---9-----4-----7---9-----7---4-7------|
A|---9-----4-----7---9-----5-5-4-7------|
E|---7-7-7-2-2-225-557-7-7-----2-5-55---|
x x x xx xx x x x x x xx

(2:48) distorted
e|-----------------------------------------------------|
b|-----------------------------------------------------|
g|--11----11-11-11-11-11-11-11-11-11-11-11-11-11-11-11-| (x1)
D|--11----11-11-11-11-11-11-11-11-11-11-11-11-11-11-11-|
A|--9-----9--9--9--9--9--9--9--9--9--9--9--9--9--9--9--|
E|-----------------------------------------------------|

(2:51) distorted
e|-------------------------------|
B|-------------------------------|
G|-------(x)---7---(X)-----------| (x3)
D|---9---(x)---7---(X)---4---7---|
A|---9---(x)---5---(X)---4---7---|
E|---7-------------------2---5---|

(2:56) distorted
e|-----|
B|-----|
G|-----| (x1)
D|--9--|
A|--9--|
E|--7--|

(2:57) distorted
e|-------------------------------|
B|-------------------------------|
G|-------(x)---7---(X)-----------| (x3)
D|---9---(x)---7---(X)---4---7---|
A|---9---(x)---5---(X)---4---7---|
E|---7-------------------2---5---|

(3:02) distorted
e|-----|
B|-----|
G|-----| (x1)
D|--9--|
A|--9--|
E|--7--|

(3:03) distorted
e|-------------------------------|
B|-------------------------------|
G|-------(x)---7---(X)-----------| (x2)
D|---9---(x)---7---(X)---4---7---|
A|---9---(x)---5---(X)---4---7---|
E|---7-------------------2---5---|

(3:06) distorted
e|------------------------------------------|
B|------------------------------------------|
G|--12-12-12-12-12-12-12-12-5-5-5-5-5-5-5-5-| (x1)
D|--12-12-12-12-12-12-12-12-5-5-5-5-5-5-5-5-|
A|--10-10-10-10-10-10-10-10-3-3-3-3-3-3-3-3-|
E|------------------------------------------|

(3:09) distorted
e|-----------------------------------------------------|
B|-----------------------------------------------------|
G|-------(x)---7---(X)---------------------------------| (x1)
D|---9---(x)---7---(X)---4---7---4-4-4-4-4-4-4-4-4-7-7-|
A|---9---(x)---5---(X)---4---7---4-4-4-4-4-4-4-4-4-7-7-|
E|---7-------------------2---5---2-2-2-2-2-2-2-2-2-5-5-|

(3:12) distorted
e|----------------------------------|
B|----------------------------------|
G|-------(x)---7---(X)--------------| (x1)
D|---9---(x)---7---(X)---4---7----9-|
A|---9---(x)---5---(X)---4---7----9-|
E|---7-------------------2---5----7-|

End

Hope you all enjoy this
Song info
Come Out And Play
The Offspring
1994
  • Rock
  • Punk
Alternative tracks
Similar songs
Anarchy In The UK - Sex Pistols
Teenage Kicks - The Undertones

Hi! Hope you enjoy backing track experience.
If you want to help us in the development of the project, feel free to donate!