Million Miles Away - The Offspring
00:00 / 00:00
Tabs and lyrics
Tunning: Standard (E A D G B e)
Offspring - Million Miles Away

This is a great song and im pretty sure these tabs are 100% correct

: - let ring
/ \ - slide
pm - palm mute


intro - guitar 1 guitar 2

|---------------------------| |-------------------|
|---------------------------| |-------------------|
|-----------------2---------| |----------/9-9-9-9-|
|-----4-----------------2-4-| |-7----7-7-/9-9-9-9-|
|-----------4---------------| |-7----7-7-/7-7-7-7-|
|-2-2---2-2---2-2---2-2-----| |-5----5-5----------|

guitar 2 / post chorus - for post chorus, strum all of it, without ringing
and with palm mute

|----------------------------------------------------|
|----------------------------------------------------|
|---------------------------------/7--7-7-7/9--9-9-9-|
|-4---4-4-4/7:---7-7-7/9:---9-9-9-/7--7-7-7/9--9-9-9-|
|-4---4-4-4/7:---7-7-7/9:---9-9-9-/5--5-5-5/7--7-7-7-|
|-2---2-2-2/5:---5-5-5/7:---7-7-7--------------------|

pre verse

|-------------------------------------------------------------|
|-------------------------------------------------------------|
|-11-11-11-11-11-11-11-11-11-11-11-11-------------9-9-9-9-9-9-|
|-11-11-11-11-11-11-11-11-11-11-11-11-7-7-7-7-7-7-9-9-9-9-9-9-|
|--9--9--9--9--9--9--9--9--9--9--9--9-7-7-7-7-7-7-7-7-7-7-7-7-|
|-------------------------------------5-5-5-5-5-5-------------|

verse / chorus - chorus played without palm mute

|--------------------------------------------------------|
|--------------------------------------------------------|
|-----------------------------------------/9-9-9-9-9-9-9-|
|-4-4-4-4-4-4-4-4-4-4-4-4-4/7-7-7-7-7-7-7-/9-9-9-9-9-9-9-|
|-4-4-4-4-4-4-4-4-4-4-4-4-4/7-7-7-7-7-7-7-/7-7-7-7-7-7-7-|
|-2-2-2-2-2-2-2-2-2-2-2-2-2/5-5-5-5-5-5-5----------------|

post verse

|---------------------------------------------------------------------------------
|---------------------------------------------------------------------------------
|-----------------------------9-9-9-9-9-9-9-9-9-9-9-9-----------------------------
|-----------------------------9-9-9-9-9-9-9-9-9-9-9-9-----------------------------
|-2--2-2-4--4-4-5--5-5-4--4-4-7-7-7-7-7-7-7-7-7-7-7-7-2--2-2-4--4-4-5--5-5-4--4-4-
|---------------------------------------------------------------------------------
pm_____________________________|
---------------------------------|
---------------------------------|
-9-9-9-9-9-9-9-9-9-9-9-9-9-9-9-9-|
-9-9-9-9-9-9-9-9-9-9-9-9-9-9-9-9-|
-7-7-7-7-7-7-7-7-7-7-7-7-7-7-7-7-|
---------------------------------|

solo

|---------------------------------------------------------------
|---------------------------------------------------------------
|-16^-16-14-11--16^-16-14-16-16--16^-16-14-11--16^-16-14-16-16--
|---------------------------------------------------------------
|---------------------------------------------------------------
|---------------------------------------------------------------

-----------------------------------------------------------------
-----------------------------------------------------------------
-14-11-11-11-9-11-14-14-14-14-11-11-11-9-11-14-14-14-14-11-11-11-
-----------------------------------------------------------------
-----------------------------------------------------------------
-----------------------------------------------------------------

---------------------------------------|
---------------------------------------|
-9-11-11-14-14-14--10^--12^--10^--8^---|
---------------------------------------|
---------------------------------------|
---------------------------------------|
Tunning: Nashville (E A D G B E)
PM--| PM--| PM--| PM--| PM--|
E|-----------------------------------------------------|
B|-----------------------------------------------------|
G|--------------------2----------------------9-9-------|
D|-------4-----2-----------2-----2H4----7----9-9-------|
A|--------------------------------------7----7-7-------|
E|---2-2---2-2---2-2---2-2---2-2--------5--------------|
T---| T---| T---| T---| T---|
2X
[Guitar 2]
(Half the intro)
[Guitar 1]
E|-----------------------------------------------------|
B|-----------------------------------------------------|
G|----------------------------7--7/9--9----------------|
D|--4---4-4/7----7-7/9----9-9/7--7/9--9----------------|
A|--4---4-4/7----7-7/9----9-9/5--5/7--7----------------|
E|--2---2-2/5----5-5/7----7-7/-------------------------|

E|-----------------------------------------------------|
B|-----------------------------------------------------|
G|--9/11--11--11-11-11--11-11-11-11--11--11/-----------|
D|--9/11--11--11-11-11--11-11-11-11--11--11/-----------|
A|--7/-9---9---9--9--9---9--9--9--9---9---9/-----------|
E|-----------------------------------------------------|

E|-----------------------------------------------------|
B|-----------------------------------------------------|
G|-----------------11-11-11-11--11-11------------------|
D|--7--7--7-7-7----11-11-11-11--11-11------------------|
A|--7--7--7-7-7-----9--9--9--9---9--9------------------|
E|--5--5--5-5-5----------------------------------------|

2X

[Verse]
4X
E|-----------------------------------------------------|
B|-----------------------------------------------------|
G|------------------------------------------9----------|
D|4--------------4-4-4-4-4-4--4/7---------7-9-9-9-9-9--|
A|4--4-4-4-4-4-4-4-4-4-4-4-4--4/7-7-7-7-7-7-7-7-7-7-7--|
E|2--2-2-2-2-2-2-2-2-2-2-2-2--2/5-5-5-5-5-5------------|
PM-----------------------| |-------| |-------|

[Pre-Chorus]
E|-----------------------------------------------------|
B|-----------------------------------------------------|
G|--4--4/6-6--6/7--7--7/6--6/9--9--9-9-9-9-9--9--9--9-9|
D|--X--X/X-X--X/X--X--X/X--X/9--9--9-9-9-9-9--9--9--9-9|
A|--2--2/4-4--4/5--5--5/4--4/7--7--7-7-7-7-7--7--7--7-7|
E|-----------------------------------------------------|

E|-----------------------------------------------------|
B|-----------------------------------------------------|
G|-4--4/6--6--6/7--7--7/6--6--6/9----------------------|
D|-X--X/X--X--X/X--X--X/X--X--X/9----------------------|
A|-2--2/4--4--4/5--5--5/4--4--4/7----------------------|
E|-----------------------------------------------------|

OOOOOOOONNNNNNNNN MYYYY WAY
E|-----------------------------------------------------|
B|-----------------------------------------------------|
G|--------------------------------------------9-9-9-9--|
D|9-9-9-9-9-9-9-9-9-9-9-9-9-9-9-9-9-9-9-9-9-9-9-9-9-9--|
A|7-7-7-7-7-7-7-7-7-7-7-7-7-7-7-7-7-7-7-7-7-7-7-7-7-7--|
E|-----------------------------------------------------|
PM--------------------------------------------------|
HOOOOOOOOOOOOOOOME
[Chorus] 2x
E|-----------------------------------------------------|
B|-----------------------------------------------------|
G|-11-11-11-11-11-11-11-11-------------9-9-9-9---------|
D|-11-11-11-11-11-11-11-11----7-7-7-7--9-9-9-9---------|
A|--9--9--9--9--9--9--9--9----7-7-7-7--7-7-7-7---------|
E|----------------------------5-5-5-5------------------|
(OH) (OH) MILLION MILES AWAY

E|-----------------------------------------------------|
B|-----------------------------------------------------|
G|-----------------------------------------------------|
D|4----------4/7----------7/9--------------------------|
A|4-44444444-4/7-77777777-7/9-99999999-----------------|
E|2-22222222-2/5-55555555-5/7-77777777-----------------|

E|-----------------------------------------------------|
B|-----------------------------------------------------|
G|-7-7-7-7/9-9-9-9-9/11--------------------------------|
D|-7-7-7-7/9-9-9-9-9/11--------------------------------|
A|-5-5-5-5/7-7-7-7-7/-9--------------------------------|
E|-----------------------------------------------------|

[Solo] 2x
E|-----------------------------------------------------|
B|-----------------------------------------------------|
G|16B--(16)/14---14/11-11--(11)-16B-(16)-14-14-14/16-16|
D|16B--(16)/14---14/11-11--(11)-16B-(16)-14-14-14/16-16|
A|-----------------------------------------------------|
E|-----------------------------------------------------|

3X
E|-----------------------------------------------------|
B|-----------------------------------------------------|
G|-----------------------------------------------------|
D|16-16/19--16-16-16-16-14H16-19-19-19-19--------------|
A|-----------------------------------------------------|
E|-----------------------------------------------------|

E|-----------------------------------------------------|
B|--10------12-----9---5-------------------------------|
G|--12B-----14B---11B--7B------------------------------|
D|-----------------------------------------------------|
A|-----------------------------------------------------|
E|-----------------------------------------------------|


************************************

| / Slide up
| x Dead note
| (n) Ghost note

************************************
Tunning: Standard (E A D G B e)
Artist: The Offspring
Song: Million Miles Away
Album: Conspiracy Of One
Tabbed By: Lee Taylor
E-mail: mr_tay2001@hotmail.com

Guitar 1: F# B E A C# F# (low to high), Distortion
Guitar 2: E A D G B E (low to high), Distortion
#======================================#
# . (under the bar) = Palm Mute #
# : = Let Ring #
# (b) = Bend and release #
# / = Slide Up #
# \ = Slide Down #
# h = Hammer On #
#======================================#
I have seen many versions of this tab and seen many parts wrong according
to how Offspring play it live. The tuning mut be like this as you can see
Noodles playing the very first part of the song around about the 5th & 7th
frets, and the rest of the stuff he plays which is the same as what Dexter
is playing is always 2 frets lower, but sounds the same.


Intro:

Guitar 1
|---------------------------------------------------------------------|
|---------------------------------------------------------------------|
|---------------------------------------------------------------------|
|---------------------------------------------------------------------|
|-----7-----5-----10-----5-----5h7------------------------------------|
|-0-0---0-0---0-0----0-0---0-0----------------------------------------|
| . . . . . . . . . . . . . . . . |
| | x2
|Guitar 2 |
|---------------------------------------------------------------------|
|---------------------------------------------------------------------|
|---------------------------------------------9--9-9-9----------------|
|----------------------------------7--7-7-7-/-9--9-9-9----------------|
|----------------------------------7--7-7-7-/-7--7-7-7----------------|
|----------------------------------5--5-5-5-/-------------------------|

Guitar 1
|---------------------------------------------------------------------|
|---------------------------------------------------------------------|
|---------------------------------------------------------------------|
|---------------------------------------------------------------------|
|-----7-----5-----10-----5-----5h7------7-----5-----10-----5-----5h7--|
|-0-0---0-0---0-0----0-0---0-0------0-0---0-0---0-0----0-0---0-0------|
| . . . . . . . . . . . . . . . . . . . . . . . . . . . . . . . . |
| |
|Guitar 2 |
|---------------------------------------------------------------------|
|---------------------------------------------------------------------|
|---------------------------------------------------------------------|
|-4:---------------------4--4--4-/-7:--------------------7--7--7-/----|
|-4:---------------------4--4--4-/-7:--------------------7--7--7-/----|
|-2:---------------------2--2--2-/-5:--------------------5--5--5-/----|

Guitar 1
|---------------------------------------------------------------------|
|---------------------------------------------------------------------|
|---------------------------------------------------------------------|
|---------------------------------------------------------------------|
|-----7-----5-----10-----5-----5h7------7-----5-----10-----5-----5h7--|
|-0-0---0-0---0-0----0-0---0-0------0-0---0-0---0-0----0-0---0-0------|
| . . . . . . . . . . . . . . . . . . . . . . . . . . . . . . . . |
| |
|Guitar 2 |
|---------------------------------------------------------------------|
|---------------------------------------------------------------------|
|----------------------------------7---7---7---7-/-9---9---9---9------|
|-9:---------------------9--9--9---7---7---7---7-/-9---9---9---9------|
|-9:---------------------9--9--9---5---5---5---5-/-7---7---7---7------|
|-7:---------------------7--7--7--------------------------------------|


Intro Part 2:

Guitar 1
|---------------------------------------------------------------------|
|---------------------------------------------------------------------|
|---------------------------------------------------------------------|
|---------------------------------------------------------------------|
|-----7-----5-----10-----5-----5h7------7-----5-----10-----5-----5h7--|
|-0-0---0-0---0-0----0-0---0-0------0-0---0-0---0-0----0-0---0-0------|
| . . . . . . . . . . . . . . . . . . . . . . . . . . . . . . . . |
| | x2
|Guitar 2 |
|---------------------------------------------------------------------|
|---------------------------------------------------------------------|
|-11--11--11--11--11--11--11--11------------------9---9---9---9-------|
|-11--11--11--11--11--11--11--11--7---7---7---7---9---9---9---9-------|
|--9---9---9---9---9---9---9---9--7---7---7---7---7---7---7---7-------|
|---------------------------------5---5---5---5-----------------------|


Verse:

Guitar 1
|---------------------------------------------------------------------|
|---------------------------------------------------------------------|
|-------------------------------------------------7-7-7-7-7-7-7-7-----|
|-2-2-2-2-2-2-2-2-2-2-2-2-2-2-2-2/5-5-5-5-5-5-5-5/7-7-7-7-7-7-7-7-----|
|-2-2-2-2-2-2-2-2-2-2-2-2-2-2-2-2/5-5-5-5-5-5-5-5/5-5-5-5-5-5-5-5-----|
|-0-0-0-0-0-0-0-0-0-0-0-0-0-0-0-0/3-3-3-3-3-3-3-3/--------------------|
| . . . . . . . . . . . . . . . . . . . . . . . . . . . . . |
| | x4
|Guitar 2 |
|---------------------------------------------------------------------|
|---------------------------------------------------------------------|
|-------------------------------------------------9-9-9-9-9-9-9-9-----|
|-4-4-4-4-4-4-4-4-4-4-4-4-4-4-4-4/7-7-7-7-7-7-7-7/9-9-9-9-9-9-9-9-----|
|-4-4-4-4-4-4-4-4-4-4-4-4-4-4-4-4/7-7-7-7-7-7-7-7/7-7-7-7-7-7-7-7-----|
|-2-2-2-2-2-2-2-2-2-2-2-2-2-2-2-2/5-5-5-5-5-5-5-5/--------------------|
. . . . . . . . . . . . . . . . . . . . . . . . . . . . .
There was a time,


Pre-Chorus:

Guitar 1
|---------------------------------------------------------------------|
|---------------------------------------------------------------------|
|-2-2-/-4-4-/-5-5-\-4-4-4--7-7-7-7-7-7-7-7-7-7-7-7-7-7-7-7------------|
|-x-x-/-x-x-/-x-x-\-x-x-x--7-7-7-7-7-7-7-7-7-7-7-7-7-7-7-7------------|
|-0-0-/-2-2-/-3-3-\-2-2-2--5-5-5-5-5-5-5-5-5-5-5-5-5-5-5-5------------|
|---------------------------------------------------------------------|
| |
| |
|Guitar 2 |
|---------------------------------------------------------------------|
|---------------------------------------------------------------------|
|-4-4-/-6-6-/-7-7-\-6-6-6--9-9-9-9-9-9-9-9-9-9-9-9-9-9-9-9------------|
|-x-x-/-x-x-/-x-x-\-x-x-x--9-9-9-9-9-9-9-9-9-9-9-9-9-9-9-9------------|
|-2-2-/-4-4-/-5-5-\-4-4-4--7-7-7-7-7-7-7-7-7-7-7-7-7-7-7-7------------|
|---------------------------------------------------------------------|
Its telling me

Guitar 1
|------------------------------------------------------------------------------------------|
|------------------------------------------------------------------------------------------|
|-2-2-/-4-4-/-5-5-\-4-4-4--7-7-7-7-7-7-7-7-7-7-7-7-7-7-7-7-7-7-7-7-7-7-7-7-7-7-7-7-7-7-7-7-|
|-x-x-/-x-x-/-x-x-\-x-x-x--7-7-7-7-7-7-7-7-7-7-7-7-7-7-7-7-7-7-7-7-7-7-7-7-7-7-7-7-7-7-7-7-|
|-0-0-/-2-2-/-3-3-\-2-2-2--5-5-5-5-5-5-5-5-5-5-5-5-5-5-5-5-5-5-5-5-5-5-5-5-5-5-5-5-5-5-5-5-|
|------------------------------------------------------------------------------------------|
| . . . . . . . . . . . . . . . . . . . . . . . . . . . . . . . |
| |
|Guitar 2 |
|------------------------------------------------------------------------------------------|
|------------------------------------------------------------------------------------------|
|-4-4-/-6-6-/-7-7-\-6-6-6--9-9-9-9-9-9-9-9-9-9-9-9-9-9-9-9-9-9-9-9-9-9-9-9-9-9-9-9-9-9-9-9-|
|-x-x-/-x-x-/-x-x-\-x-x-x--9-9-9-9-9-9-9-9-9-9-9-9-9-9-9-9-9-9-9-9-9-9-9-9-9-9-9-9-9-9-9-9-|
|-2-2-/-4-4-/-5-5-\-4-4-4--7-7-7-7-7-7-7-7-7-7-7-7-7-7-7-7-7-7-7-7-7-7-7-7-7-7-7-7-7-7-7-7-|
|------------------------------------------------------------------------------------------|
. . . . . . . . . . . . . . . . . . . . . . . . . . . . . . .
To be on my way, Home,


Chorus:

Guitar 1
|----------------------------------------------------------------------------------|
|----------------------------------------------------------------------------------|
|--9--9--9--9--9--9--9--9--9--9--9--9--9--9--9--9-----------------7-7-7-7-7-7-7-7--|
|--9--9--9--9--9--9--9--9--9--9--9--9--9--9--9--9-5-5-5-5-5-5-5-5-7-7-7-7-7-7-7-7--|
|--7--7--7--7--7--7--7--7--7--7--7--7--7--7--7--7-5-5-5-5-5-5-5-5-5-5-5-5-5-5-5-5--|
|-------------------------------------------------3-3-3-3-3-3-3-3------------------|
| |
| | x2
|Guitar 2 |
|----------------------------------------------------------------------------------|
|----------------------------------------------------------------------------------|
|-11-11-11-11-11-11-11-11-11-11-11-11-11-11-11-11-----------------9-9-9-9-9-9-9-9--|
|-11-11-11-11-11-11-11-11-11-11-11-11-11-11-11-11-7-7-7-7-7-7-7-7-9-9-9-9-9-9-9-9--|
|--9--9--9--9--9--9--9--9--9--9--9--9--9--9--9--9-7-7-7-7-7-7-7-7-7-7-7-7-7-7-7-7--|
|-------------------------------------------------5-5-5-5-5-5-5-5------------------|
Oh oh oh oh, Million miles away,


Chorus Part 2:

Guitar 1
|---------------------------------------------------------------------|
|---------------------------------------------------------------------|
|---------------------------------------------------------------------|
|---------------------------------------------------------------------|
|-----7-----5-----10-----5-----5h7------7-----5-----10-----5-----5h7--|
|-0-0---0-0---0-0----0-0---0-0------0-0---0-0---0-0----0-0---0-0------|
| . . . . . . . . . . . . . . . . . . . . . . . . . . . . . . . . |
| |
|Guitar 2 |
|---------------------------------------------------------------------|
|---------------------------------------------------------------------|
|---------------------------------------------------------------------|
|-4-4-4-4-4-4-4-4-4-4-4-4-4-4-4-4--7-7-7-7-7-7-7-7-7-7-7-7-7-7-7-7----|
|-4-4-4-4-4-4-4-4-4-4-4-4-4-4-4-4--7-7-7-7-7-7-7-7-7-7-7-7-7-7-7-7----|
|-2-2-2-2-2-2-2-2-2-2-2-2-2-2-2-2--5-5-5-5-5-5-5-5-5-5-5-5-5-5-5-5----|
. . . . . . . . . . . . . . . . . . . . . . . . . . . . . .

Guitar 1
|---------------------------------------------------------------------|
|---------------------------------------------------------------------|
|---------------------------------------------------------------------|
|---------------------------------------------------------------------|
|-----7-----5-----10-----5-----5h7------7-----5-----10-----5-----5h7--|
|-0-0---0-0---0-0----0-0---0-0------0-0---0-0---0-0----0-0---0-0------|
| . . . . . . . . . . . . . . . . . . . . . . . . . . . . . . . . |
| |
|Guitar 2 |
|---------------------------------------------------------------------|
|---------------------------------------------------------------------|
|----------------------------------7-7-7-7-7-7-7-7-9-9-9-9-9-9-9-9----|
|-9-9-9-9-9-9-9-9-9-9-9-9-9-9-9-9--7-7-7-7-7-7-7-7-9-9-9-9-9-9-9-9----|
|-9-9-9-9-9-9-9-9-9-9-9-9-9-9-9-9--5-5-5-5-5-5-5-5-7-7-7-7-7-7-7-7----|
|-7-7-7-7-7-7-7-7-7-7-7-7-7-7-7-7-------------------------------------|
. . . . . . . . . . . . . . .


Then Play:

Intro Part 2 x2
Verse x4
Pre-Chorus x1
Chorus x2
Chorus Part 2 x1


Solo:

Guitar 1
|---------------------------------------------------------------------|
|---------------------------------------------------------------------|
|-14(b)----14---12----9----------14(b)---14--14--12--14--14-----------|
|---------------------------------------------------------------------|
|---------------------------------------------------------------------|
|---------------------------------------------------------------------|
| |
| | x2
|Guitar 2 |
|---------------------------------------------------------------------|
|---------------------------------------------------------------------|
|-11--11--11--11--11--11--11--11------------------9---9---9---9-------|
|-11--11--11--11--11--11--11--11--7---7---7---7---9---9---9---9-------|
|--9---9---9---9---9---9---9---9--7---7---7---7---7---7---7---7-------|
|---------------------------------5---5---5---5-----------------------|

Guitar 1
|---------------------------------------------------------------------|
|---------------------------------------------------------------------|
|-12--12---9---9---9--7---9--12----12-12-12--9--9--9--9--9--9-7--9-12-|
|---------------------------------------------------------------------|
|---------------------------------------------------------------------|
|---------------------------------------------------------------------|
| |
| |
|Guitar 2 |
|---------------------------------------------------------------------|
|---------------------------------------------------------------------|
|---------------------------------------------------------------------|
|-4-4-4-4-4-4-4-4-4-4-4-4-4-4-4-4-/7-7-7-7-7-7-7-7-7-7-7-7-7-7-7-7----|
|-4-4-4-4-4-4-4-4-4-4-4-4-4-4-4-4-/7-7-7-7-7-7-7-7-7-7-7-7-7-7-7-7----|
|-2-2-2-2-2-2-2-2-2-2-2-2-2-2-2-2-/5-5-5-5-5-5-5-5-5-5-5-5-5-5-5-5----|

Guitar 1
|------------------------------------------------------------------------|
|------------------------------------------------------------------------|
|-12-12-12--9--9--9--9--9--9-7--9-12--12(b)---14(b)---11(b)---7(b)----9--|
|------------------------------------------------------------------------|
|------------------------------------------------------------------------|
|------------------------------------------------------------------------|
| |
| |
|Guitar 2 |
|------------------------------------------------------------------------|
|------------------------------------------------------------------------|
|-------------------------------------7-7-7-7-7-7-7-7/9-9-9-9-9-9-9-9----|
|-9-9-9-9-9-9-9-9-9-9-9-9-9-9-9-9--/--7-7-7-7-7-7-7-7/9-9-9-9-9-9-9-9----|
|-9-9-9-9-9-9-9-9-9-9-9-9-9-9-9-9--/--5-5-5-5-5-5-5-5/7-7-7-7-7-7-7-7----|
|-7-7-7-7-7-7-7-7-7-7-7-7-7-7-7-7--/-------------------------------------|


Then Play:

Pre-Chorus x1
Chorus x4


End Chorus:

Guitar 1
|----------------------------------------------------------------------------------|
|----------------------------------------------------------------------------------|
|----------------------------------------------------------------------------------|
|----------------------------------------------------------------------------------|
|-----7-----5-----10-----5-----5h7--------------7-----5-----10-----5-----5h7-------|
|-0-0---0-0---0-0----0-0---0-0--------------0-0---0-0---0-0----0-0---0-0-----------|
| . . . . . . . . . . . . . . . . . . . . . . . . . . . . . . . . |
| | x4
|Guitar 2 |
|----------------------------------------------------------------------------------|
|----------------------------------------------------------------------------------|
|-11-11-11-11-11-11-11-11-11-11-11-11-11-11-11-11-----------------9-9-9-9-9-9-9-9--|
|-11-11-11-11-11-11-11-11-11-11-11-11-11-11-11-11-7-7-7-7-7-7-7-7-9-9-9-9-9-9-9-9--|
|--9--9--9--9--9--9--9--9--9--9--9--9--9--9--9--9-7-7-7-7-7-7-7-7-7-7-7-7-7-7-7-7--|
|-------------------------------------------------5-5-5-5-5-5-5-5------------------|

End on:

Guitar 1
|-------------------|
|-------------------|
|-------------------|
|-2:----------------|
|-2:----------------|
|-0:----------------|
| |
| |
|Guitar 2 |
|-------------------|
|-------------------|
|-------------------|
|-4:----------------|
|-4:----------------|
|-2:----------------|
Song info
Million Miles Away
The Offspring
2001
  • Rock
  • Alternative Rock
  • Punk
Similar songs
Tage Wie Diese - Die Toten Hosen
Starlight - Muse
My Happy Ending - Avril Lavigne

Hi! Hope you enjoy backing track experience.
If you want to help us in the development of the project, feel free to donate!