Pretty Fly - The Offspring
00:00 / 00:00
Tabs and lyrics
Tunning: Standard (E A D G B e)
[Intro]
e|----------------------|------------------------|----------------------------|G
B|----------------------|------------------------|----------------------------|U
G|-4-4-----2--4-4--9--7-|--4-4-----2--4-4--9--7--|--4-4-----2--4-4--9--7------|I
D|-4-4--4--2--4-4--9--7-|--4-4--4--2--4-4--9--7--|--4-4--4--2--4-4--9--7------|T
A|-2-2--4--0--2-2--7--5-|--2-2--4--0--2-2--7--5--|--2-2--4--0--2-2--7--5------|A
E|------2---------------|-------2----------------|-------2--------------------|R


e|----------------------------------------------------------------------------|G
B|----------------------------------------------------------------------------|U
G|-4-4-----2--4---------------------------------------------------------------|I
D|-4-4--4--2--4---------------------------------------------------------------|T
A|-2-2--4--0--2---------------------------------------------------------------|A
E|------2---------------------------------------------------------------------|R



[Verse]
e|---7--7--------7--7---|---7--7----------7--7---|----7--7---------7--7-------|G
B|---7--7--------7--7---|---7--7----------7--7---|----7--7---------7--7-------|U
G|----------------------|------------------------|----------------------------|I
D|----------------------|------------------------|----------------------------|T
A|----------------------|------------------------|----------------------------|A
E|----------------------|------------------------|----------------------------|R


e|---7--7--------7--7---------------------------------------------------------|G
B|---7--7--------7--7---------------------------------------------------------|U
G|----------------------------------------------------------------------------|I
D|----------------------------------------------------------------------------|T
A|----------------------------------------------------------------------------|A
E|----------------------------------------------------------------------------|R



[Chorus]
e|------------------------------------|---------------------------------------|G
B|--------6/7--6/7---------6/7--6/7---|---------------------------------------|U
G|--------5/6--5/6---------5/6--5/6---|-----7-7-----7---9-9--7----------------|I
D|---9-9--3/4--3/4----9-9--3/4--3/4---|-----7-7--7--7---9-9--7--7-------------|T
A|---9-9--------------9-9-------------|-----5-5--7--5---7-7--5--7-------------|A
E|---7-7--------------7-7-------------|----------5--------------5-------------|R



e|------------------------------------|---------------------------------------|G
B|--------6/7--6/7---------6/7--6/7---|---------------------------------------|U
G|--------5/6--5/6---------5/6--5/6---|-----7-7-----7---9-9--7----------------|I
D|---9-9--3/4--3/4----9-9--3/4--3/4---|-----7-7--7--7---9-9--7--7-------------|T
A|---9-9--------------9-9-------------|-----5-5--7--5---7-7--5--7-------------|A
E|---7-7--------------7-7-------------|----------5--------------5-------------|R


e|------------------------------------|---------------------------------------|G
B|--------6/7--6/7---------6/7--6/7---|---------------------------------------|U
G|--------5/6--5/6---------5/6--5/6---|-----7-7-----7---9-9--7----------------|I
D|---9-9--3/4--3/4----9-9--3/4--3/4---|-----7-7--7--7---9-9--7--7-------------|T
A|---9-9--------------9-9-------------|-----5-5--7--5---7-7--5--7-------------|A
E|---7-7--------------7-7-------------|----------5--------------5-------------|R


e|-----------------------------|----------------------------------------------|G
B|-----8-8-----7-7--1010----10-|-------7--6-----------------------------------|U
G|-----7-7--7--7-7---9-9--9--9-|-------6--5--9-----7--9-----------------------|I
D|-9---5-5--7--5-5---7-7--9--7-|--9-9--4--3--9--9--7--9--9--------------------|T
A|-9--------5-------------7----|--9-9--------7--9--5--7--9--------------------|A
E|-7---------------------------|--7-7-----------7--------7--------------------|R



[Bridge]
e|-----------------------------------------------------------------------------|G
B|-----------------------------------------------------------------------------|U
G|-----------------------------------------------------------------------------|I
D|--------------------------------9-9---9-9---9-9---9-9--9-9-9-9---------------|T
A|--------------------------------9-9---9-9---9-9---9-9--9-9-9-9---------------|A
E|--------------------------------7-7---7-7---7-7---7-7--7-7-7-7---------------|R
^ ^ ^ ^


[Outro]
e|-----------------------------|----------------------------------------------|G
B|-----8-8-----8-8--1010----10-|-------7--6-----------------------------------|U
G|-----7-7--7--7-7---9-9--9--9-|-------6--5--9--------------------------------|I
D|-9---5-5--7--5-5---7-7--9--7-|--9-9--4--3--9--9-----------------------------|T
A|-9--------5-------------7----|--9-9--------7--9-----------------------------|A
E|-7---------------------------|--7-7-----------7-----------------------------|R
Tunning: EADG (E A D G)
[Intro]

G|----------------------|------------------------|----------------------------|B
D|----------------------|------------------------|----------------------------|A
A|-2-2-----0--2-2--7--5-|--2-2-----0--2-2--7--5--|--2-2-----0--2-2--7--5------|S
E|------2---------------|-------2----------------|-------2--------------------|S


G|----------------------------------------------------------------------------|B
D|----------------------------------------------------------------------------|A
A|-2-2-----0--2-2-7--5--------------------------------------------------------|S
E|------2---------------------------------------------------------------------|S


[Verse]

G|----------------------|------------------------|----------------------------|B
D|----------------------|------------------------|----------------------------|A
A|-2-2-----0--2-2--7--5-|--2-2-----0--2-2--7--5--|--2-2-----0--2-2--7--5------|S
E|------2---------------|-------2----------------|-------2--------------------|S


G|----------------------------------------------------------------------------|B
D|----------------------------------------------------------------------------|A
A|-2-2-----0--2-2-7--5--------------------------------------------------------|S
E|------2---------------------------------------------------------------------|S


[Chorus]

G|------------------------------------|---------------------------------------|B
D|--------3/4--3/4---------3/4--3/4---|---------------------------------------|A
A|------------------------------------|-----5-5-----5---7-7--5----------------|S
E|---7-7--------------7-7-------------|----------5--------------5-------------|S


G|------------------------------------|---------------------------------------|B
D|--------3/4--3/4---------3/4--3/4---|---------------------------------------|A
A|------------------------------------|-----5-5-----5---7-7--5----------------|S
E|---7-7--------------7-7-------------|----------5--------------5-------------|S


G|------------------------------------|---------------------------------------|B
D|--------3/4--3/4---------3/4--3/4---|---------------------------------------|A
A|------------------------------------|-----5-5-----5---7-7--5----------------|S
E|---7-7--------------7-7-------------|----------5--------------5-------------|S


G|-----------------------------|----------------------------------------------|B
D|-----5-5-----5-5---7-7-----7-|-------4--3-----------------------------------|A
A|----------5-------------7----|-------------7-----5--7-----------------------|S
E|-7---------------------------|--7-7-----------7--------7--------------------|S


[Bridge]

G|--------------------4--------------------------------------------------------|B
D|-------------------------2-0-------------------------------------------------|A
A|--2--0h2--0h2--0h2----2------------------------------------------------------|S
E|--------------------------------7-7---7-7---7-7---7-7--7-7-7-7---------------|S
^ ^ ^ ^

[Outro]

G|-----------------------------|----------------------------------------------|B
D|-----5-5-----5-5---7-7-----7-|-------4--3-----------------------------------|A
A|----------5-------------7----|-------------7--------------------------------|S
E|-7---------------------------|--7-7-----------7-----------------------------|S
Song info
Pretty Fly
The Offspring
1998
  • Rock
  • Pop Punk
  • Punk
Alternative tracks
Similar songs
Kumbala - Maldita Vecindad
Something Else - Sex Pistols
Main Offender - The Hives
Dirty Old Town - Pogues

Hi! Hope you enjoy backing track experience.
If you want to help us in the development of the project, feel free to donate!