Foot Tapper - The Shadows
00:00 / 00:00
Tabs and lyrics
Tunning: Standard (E A D G B e)
Shadows - Foot Tapper
Tabbed By Daniel Bloomfield


e|------------------------------------------------------------------------------|
B|---------5x--5x---------------------------------------------------------------|
G|-5x--5x----------5x--4x----------5x--5x------------------5x--5x---------------|
D|-------------------------7x--7x----------7x--5x--3x--3x----------7x--5x--5x---|
A|------------------------------------------------------------------------------|
E|------------------------------------------------------------------------------|


e|------------------------------------------------------------------------------|
B|---------5x--5x---------------------------------------------------------------|
G|-5x--5x----------5x--4x----------5x--5x------------------5x--5x---------------|
D|-------------------------7x--7x----------7x--5x--3x--3x----------7x--5x--5x---|
A|------------------------------------------------------------------------------|
E|------------------------------------------------------------------------------|


e|---------------------------------3x--5x--3x-----------------------------------|
B|---------------------3x--4x--5x----------------------5x--3x--3x---------------|
G|-----5x--7x--5x--5x------------------------------4x------------------3x--4x---|
D|-5x------------------------------------------5x------------------5x-----------|
A|------------------------------------------------------------------------------|
E|------------------------------------------------------------------------------|


e|-----5x--3x----------------------------------3x--5x--3x-----------------------|
B|-3x------------------3x----------3x--4x--5x--------------6x--5x---------------|
G|-----------------5x------5x--5x----------------------------------7x--5x--4x---|
D|-------------5x---------------------------------------------------------------|
A|------------------------------------------------------------------------------|
E|------------------------------------------------------------------------------|


e|------------------------------------------------------------------------------|
B|-----------------5x--5x-------------------------------------------------------|
G|-----4x--5x--5x----------5x--4x----------5x--5x------------------5x--5x-------|
D|-7x------------------------------7x--7x----------7x--5x------------------7x---|
A|---------------------------------------------------------8x--8x---------------|
E|------------------------------------------------------------------------------|


e|-----------------------------------------3x--5x--3x---------------------------|
B|-----------------------------3x--4x--5x----------------------5x--3x--3x-------|
G|-------------5x--7x--5x--5x------------------------------4x-------------------|
D|-5x--5x--5x------------------------------------------5x------------------5x---|
A|------------------------------------------------------------------------------|
E|------------------------------------------------------------------------------|


e|-------------5x--3x----------------------------------3x--5x--3x---------------|
B|---------3x------------------3x----------3x--4x--5x--------------6x--5x-------|
G|-3x--4x------------------5x------5x--5x----------------------------------7x---|
D|---------------------5x-------------------------------------------------------|
A|------------------------------------------------------------------------------|
E|------------------------------------------------------------------------------|


e|------------------------------------------------------------------------------|
B|-------------------------5x--5x-----------------------------------------------|
G|-5x--4x------4x--5x--5x----------5x--4x----------5x--5x-----------------------|
D|---------7x------------------------------7x--7x----------7x--5x--5x------5x---|
A|---------------------------------------------------------------------7x-------|
E|------------------------------------------------------------------------------|


e|----------|-------------------------------------------------------------------|
B|----------|-------------------------------------------------------------------|
G|----------|----------------1/2--0---------------------------------------------|
D|----------|-9--7--5--3--2--2/3--2--9--7--5--3--2--------2-----------2---------|
A|-7x-------|10--8--7--5--3---------10--8--7--5--3--3--5--------3--5--------3---|
E|-----8x-8x|------------------------------------------------5-----------1------|


e|-------------------------------------------------------|----------------------|
B|-------------------------------------------------------|--------3x-------3x---|
G|-------------------------------------------------------|-----5x----5x-5x------|
D|----2--------------------------------------------5---5-|--5x------------------|
A|-5-----5--5--5--5--5--5-----2--3--5--4--5--4--5--------|----------------------|
E|-------------------------5-----------------------------|----------------------|


e|-------3x-5x-3x----------------------------5x-3x-------------------------3x---|
B|-4x-5x----------------5x-3x-3x----------3x-------------3x-------3x-4x-5x------|
G|-------------------4x-------------3x-4x-------------5x----5x-5x---------------|
D|----------------5x-------------5x----------------5x---------------------------|
A|------------------------------------------------------------------------------|
E|------------------------------------------------------------------------------|


e|-5x-3x------------------------------------------------------------------------|
B|-------6x-5x----------------------5x-5x---------------------------------------|
G|-------------7x-5x-4x----4x-5x-5x-------5x-4x-------5x-5x---------------------|
D|----------------------7x----------------------7x-7x-------7x-5x-5x----5x------|
A|-------------------------------------------------------------------7x----7x---|
E|------------------------------------------------------------------------------|


e|------------------------------------------------------------------------------|
B|------------------------------------------------------------------------------|
G|------------------------------------------------------------------------------|
D|-----------------------------2-----------2--3--2--2--2--3--5--3--3--3--2------|
A|--------------2--3--3--3--5-----5--5--5-----------------------------------5---|
E|-8x-8x--3--5------------------------------------------------------------------|


e|------------------------------------------------------------------------------|
B|------------------------------------------------------------------------------|
G|------------------------------------------------------------------------------|
D|-2--2--2----------------------------------------------------------------------|
A|----------5--3--5--5--------2--3--3--------3--3-----------3--3--3-------------|
E|----------------------3--5-----------3--3--------3--3--3-----------3--3--3----|


e|------------------------------------------------------------------------------|
B|------------------------------------------------------------------------------|
G|--------------------1/2--0----------------------------------------------------|
D|-----9--7--5--3--2--2/3--1--9--7--5--3--2--------2-----------2-----------2----|
A|-3--10--8--7--5--3---------10--8--7--5--3--3--5--------3--5--------3--5-------|
E|----------------------------------------------------5-----------1-------------|


e|------------------------------------------------------------------------------|
B|---------------------------------------------------------3x----------3x--4x---|
G|-----------------------------------------------------5x------5x--5x-----------|
D|-------------------------------------------5--5--5x---------------------------|
A|-5--5--5--5--5--5-----2--3--5--4--5--4--5-------------------------------------|
E|-------------------5----------------------------------------------------------|


e|-----3x--5x--3x--------------------------------------5x--3x-------------------|
B|-5x----------------------5x--3x--3x--------------3x------------------3x-------|
G|---------------------4x------------------3x--4x------------------5x------5x---|
D|-----------------5x------------------5x----------------------5x---------------|
A|------------------------------------------------------------------------------|
E|------------------------------------------------------------------------------|


e|-----------------3x--5x--3x---------------------------------------------------|
B|-----3x--4x--5x--------------6x--5x------------------------------5x--5x-------|
G|-5x----------------------------------7x--5x--4x------4x--5x--5x----------5x---|
D|-------------------------------------------------7x---------------------------|
A|------------------------------------------------------------------------------|
E|------------------------------------------------------------------------------|


e|------------------------------------------------------------------------------|
B|-----------------------------------------------------------------5x--5x-------|
G|-4x----------5x--5x------------------5x--5x--------------5x--5x----------5x---|
D|-----7x--7x----------7x--5x------------------7x--5x--5x-----------------------|
A|-----------------------------7x--7x-------------------------------------------|
E|------------------------------------------------------------------------------|


e|------------------------------------------------------------------------------|
B|------------------------------------------------------------------------------|
G|-4x----------5x--5x-----------------------------------------------------------|
D|-----7x--7x----------7x--5x--5x------5x------2x--2x--2x--2x--2---2------------|
A|---------------------------------7x------7x--3x--3x--3x--3x--3---3------------|
E|------------------------------------------------------------------------------|



************************************

| x Dead note
| / Slide up

************************************
Tunning: Standard (E A D G B e)
---------------------------


C Am F G C

E |------|--------------|---------------|-------------|--------|---------------|
B |------|------5-5-----|---------------|-------------|--------|------5--5-----|
G |------|-5--5-----5-4-|------5--5-----|------5--5---|--------|-5--5------5-4-|
D |------|--------------|-7--7------7-5-|-----------7-|--5--5--|---------------|
A |------|--------------|---------------|-8--8--------|--------|---------------|
E |------|--------------|---------------|-------------|--------|---------------|


Am F G

E |---------------|-------------|------------||
B |---------------|-------------|--------1-3-||
G |------5--5-----|------5--5---|------0-----||
D |-7--7------7-5-|-----------7-|-5-5--------||
A |---------------|-8--8--------|------------||
E |---------------|-------------|------------||


C G C

E |-----------|---3-5-3-(3)-----0-|----------|-----5-3-------|-----------|
B |-1--1--3-4-|-5-------------0---|-3--3-----|---3-------1-3-|-1--1--3-4-|
G |-----------|-------------0-----|------0-3-|-4-------0-----|-----------|
D |-----------|-------------------|----------|---------------|-----------|
A |-----------|-------------------|----------|---------------|-----------|
E |-----------|-------------------|----------|---------------|-----------|


F G C

E |---3-5-3-(3)-|-1-0---|----------|---------------|
B |-5-----------|-----3-|-1-0----0-|------5--5-----|
G |-------------|-------|------2---|-5--5------5-4-|
D |-------------|-------|----------|---------------|
A |-------------|-------|----------|---------------|
E |-------------|-------|----------|---------------|


1 2 Am F G Am C

E |--------------|------------|-----------||------------|---------------|-----||
B |--------------|------------|-------1-3-||------------|---------------|-----||
G |-----5--5-----|-----5--5---|-----0-----||-----5--5---|---------------|-----||
D |-7-7------7-5-|----------7-|-5-5-------||-7-7------7-|-5-5-2-(2)-5-2-|-----||
A |--------------|-8-8--------|-----------||------------|---------------|-3-3-||
E |--------------|------------|-----------||------------|---------------|-----||


G C G C Am F

E |------|-----|---------|----|------|-----|---|-------|---|-------|---|-------|
B |------|-----|---------|----|------|-----|---|-------|---|-------|---|-------|
G |------|-----|---------|----|------|-----|---|-------|---|-------|---|-------|
D |--9-7-|-5-3-|-2-6-7-5-|(5)-|--9-7-|-5-3-|-2-|---0-2-|---|---0-2-|---|---0-2-|
A |-10-8-|-7-5-|-3-7/8-7-|(7)-|-10-8-|-7-5-|-3-|-3-----|-0-|-3-----|---|-3-----|
E |------|-----|---------|----|------|-----|---|-------|---|-------|-1-|-------|


D G

E |---------|----------|-------------|-------------||
B |---------|----------|-------------|---------1-3-||
G |---------|----------|-------------|-------0-----||
D |---------|----------|-------------|-5--5--------||
A |-5-55-55-|-5--0-2-3-|-5--4-5--4-5-|-------------||
E |---------|----------|-------------|-------------||


C G C

E |-----------|---3-5-3-(3)-----0-|----------|-----5-3-------|-----------|
B |-1--1--3-4-|-5-------------0---|-3--3-----|---3-------1-3-|-1--1--3-4-|
G |-----------|-------------0-----|------0-3-|-4-------0-----|-----------|
D |-----------|-------------------|----------|---------------|-----------|
A |-----------|-------------------|----------|---------------|-----------|
E |-----------|-------------------|----------|---------------|-----------|


F G C Am C

E |---3-5-3-(3)|-1-0---|---------|---------------|----------------|------------|
B |-5----------|-----3-|-1-0---0-|------5--5-----|----------------|------------|
G |------------|-------|-----2---|-5--5------5-4-|------5-(5)-5---|------------|
D |------------|-------|---------|---------------|-7--7---------7-|-5-5-2--5-2-|
A |------------|-------|---------|---------------|----------------|------------|
E |------------|-------|---------|---------------|----------------|------------|


G C F C

E |-----------|------|-------|------|-------|------|-------|-----|-------|-----|
B |-----------|------|-------|------|-------|------|-------|-----|-------|-----|
G |-----------|------|-------|------|-------|------|-------|-----|-------|-----|
D |-----------|------|-----2-|------|---2-3-|-2--2-|-2-3-5-|-3-3-|-3-2---|-2-2-|
A |-3-3-----2-|-3--3-|-3-5---|-5--5-|-5-----|------|-------|-----|-----5-|-----|
E |-----3-5---|------|-------|------|-------|------|-------|-----|-------|-----|


G C

E |-------|------|-------|-----------|------------------|-------------|-----||
B |-------|------|-------|-----------|------------------|-------------|-----||
G |-------|------|-------|-----------|------------------|-------------|-----||
D |-2-----|------|-------|-----------|------------------|-------------|-----||
A |---5-3-|-5--5-|-----2-|-3-2/3-----|-2/3-2/3----------|-2/3-3-------|--3--||
E |-------|------|-3-5---|-------3-3-|---------3--3-3-3-|-------3-3-3-|-----||


G C G C Am 2 F

E |------|-----|---------|-----|------|-----|---|-------|----|-------|----|
B |------|-----|---------|-----|------|-----|---|-------|----|-------|----|
G |------|-----|---------|-----|------|-----|---|-------|----|-------|----|
D |--9-7-|-5-3-|-2-6-7-5-|-(5)-|--9-7-|-5-3-|-2-|---0-2-|----|---0-2-|----|
A |-10-8-|-7-5-|-3-7/8-7-|-(7)-|-10-8-|-7-5-|-3-|-3-----|-0--|-3-----|-1--|
E |------|-----|---------|-----|------|-----|---|-------|----|-------|----|


D G

E |-------|-------------|----------|-------------|------------||
B |-------|-------------|----------|-------------|--------1-3-||
G |-------|-------------|----------|-------------|------0-----||
D |---0-2-|-------------|----------|-------------|-5-5--------||
A |-3-----|-5--5-5--5-5-|-5--0-2-3-|-5--4-5--4-5-|------------||
E |-------|-------------|----------|-------------|------------||


C G C

E |-----------|---3-5-3-(3)-----0-|----------|-----5-3-------|-----------|
B |-1--1--3-4-|-5-------------0---|-3--3-----|---3-------1-3-|-1--1--3-4-|
G |-----------|-------------0-----|------0-3-|-4-------0-----|-----------|
D |-----------|-------------------|----------|---------------|-----------|
A |-----------|-------------------|----------|---------------|-----------|
E |-----------|-------------------|----------|---------------|-----------|


F G 2 C Am F

E |---3-5-3-(3)-|-1-0---|----------|---------------|--------------|------------|
B |-5-----------|-----3-|-1-0----0-|------5--5-----|--------------|------------|
G |-------------|-------|------2---|-5--5------5-4-|-----5--5-----|-----5--5---|
D |-------------|-------|----------|---------------|-7-7------7-5-|----------7-|
A |-------------|-------|----------|---------------|--------------|-8-8--------|
E |-------------|-------|----------|---------------|--------------|------------|


G 2 C Am C C 2

E |-----|---------------|-------------|------------|-----|---|------|---|-----||
B |-----|------5--5-----|-------------|------------|-----|---|------|---|-----||
G |-----|-5--5------5-4-|------5--5---|------------|-----|---|------|---|-----||
D |-5-5-|---------------|-7--7------7-|-5-5-2--5-2-|-----|---|------|---|-2-2-||
A |-----|---------------|-------------|------------|-3-3-|---|-3--3-|---|-3-3-||
E |-----|---------------|-------------|------------|-----|---|------|---|-----||


Chords :
C Am F G D Am 2 G 2 C 2

E |--0----0----1----3----2-----8-----7------8--|
B |--1----1----1----3----3----10-----8------8--|
G |--0----2----2----4----2-----9-----7------9--|
D |--2----2----3----5----0----10-----9-----10--|
A |--3----0----3----5--------------------------|
E |--------------------------------------------|

Song info
Foot Tapper
The Shadows
2001
  • Pop
  • Instrumental
Alternative tracks
Similar songs
La Flaca - Jarabe de Palo
Cavatina - The Shadows
Secret Agent Man - The Ventures
Walk Dont Run - The Ventures
South Of The Border - The Shadows

Hi! Hope you enjoy backing track experience.
If you want to help us in the development of the project, feel free to donate!