New Orleans Is Sinking - The Tragically Hip
00:00 / 00:00
Tabs and lyrics
Tunning: Nashville (E A D G B E)
NEW ORLEANS IS SINKING
By The Tragically Hip

I'm not really sure if this is correct, but this is how I play it:

The main riff looks like:

E|----------------------------|
B|----------------------------|
G|----------------------------|
D|--------2-----------0--0h2--|
A|-----------2-----2----------|
E|--0--0--------3-------------|

I think the bass plays something similiar to this as well.

The other catchy little riff looks something like:

E|----------0-----------------------------------0--------------------------|
B|--3p0--0-----3p0----------------------3p0--0-----3p0---------------------|
G|------------------4p0--3p0--2p0-----------------------4p0--3p0--2p0------|
D|---------------------------------2p0---------------------------------2---|
A|-------------------------------------------------------------------------|
E|-------------------------------------------------------------------------|


E|----------0--------------------------------------------------------------|
B|--3p0--0-----3p0---------------------------------------------------------|
G|------------------4p0--3p0--2p0--4p0--3p0--2p0--2s4--4--4--4--4----------|
D|-------------------------------------------------------------------------|
A|-------------------------------------------------------------------------|
E|-------------------------------------------------------------------------|

This riff changes alot in the song and I only tabbed one of these variations.
Note also that this riff is played much more quickly than the main riff.


The best way to figure out how it is to be played is to listen to the disk.
I play the main riff a few times and then throw in the other one every now
and then.

Sorry I don't know the solo.
I didn't have time to write out the lyrics.
Corrections and comments are welcome.


Good Luck!

Dave Hornidge
(dave@skatter.usask.ca)


END
Tunning: Nashville (E A D G B E)
Song name: New orleans is sinking
artist: tragicly hip
Tabber: jsncrdg
Date tabbed: 07/04

THIS TOOK A LONG TIME!! PLEASE RATE IT! AS YOU CAN SEE THIS IS A LONG SONG AND TOOK 3
TO TAB!

*= hammer on
`=pull of
^= Bend
/=slide

(INTRO)
E|--------------------|
B|--------------------|
G|--------------------|repeat 4x
D|-----2-------0-0*2--|
A|-------2---2--------|
E|-0-0-----3----------|

E|--------------------------| |---------------------------------|
B|-3`0-0-5-0-3`0------------| |----------------------------3`0-5|
G|---------------4-2`0--2`0-|3x|-2-*3`0-2`0-2`0-2`0-0-4-4-4------|
D|------------------------ 2| |---------------------------------|
A|--------------------------| |---------------------------------|
E|--------------------------| |---------------------------------|

E|-------------------------------------------------------------------------|
B|-------------------------------------------------------------------------|
G|---------5---------5---------5-------------------------------------------|
D|---------5---------5---------5-----5-7^`5-*7`5---------------------------|
A|-7-7-5-7---7-7-5-7---7-7-5-7---7-7---------------------------------------|
E|-5-5-------5-5-----------------------------------------------------------|
* on the 7th fret bend and release then pull of

E|-------------------------------------------------------------------------|
B|---------3-------------5-------------------------------------------------|
G|--4-4-4-4--4-4-4-7-7-7---7-----------------------------------------------|
D|-------------------------------------------------------------------------|
A|-------------------------------------------------------------------------|
E|-------------------------------------------------------------------------|


E|--------------|------------|-----|-----------------------------------|
B|-3`0-0-5-0-3`0|------------|-----|-----------------------------------|
G|--------------|-4-2`0--2`0-|-2^`0|--2-*3`0-2`0-2`0-2`0---0---0-------|
D|--------------|---------- 2|-----|---------------------2---2---0-2-2-|
A|--------------|------------|-----|-----------------------------------|
E|--------------|------------|-----|-----------------------------------|
1st ending 2nd 3rd

E|-------------------------8/----------------------------------------------|
B|-------------------------------------------------------------------------|
G|----------5----------5---------------------------------------------------|
D|----------5--7-7-----5-5-------------5------5-7^`5-----------------------|
A|--7-7--------7-7-5-7---5-----5-5-5*7----7-7------------------------------|
E|------5-7----5-5-------7-------------------------------------------------|

E|-------------------------------------------------------------------------|
B|---------3-----------------5---5/----------------------------------------|
G|-4-4-4-4---4-4-4-4---7-7-7---7-------------------------------------------|
D|-------------------------------------------------------------------------|
A|-------------------------------------------------------------------------|
E|-------------------------------------------------------------------------|

E|--------------|------------|-----|-----------------------------------|
B|-3`0-0-5-0-3`0|------------|-----|-----------------------------------|
G|--------------|-4-2`0--2`0-|-2^`0|-4-2`0-3`0-2`0--2`0----------------|
D|--------------|---------- 2|-----|-----------------------------------|
A|--------------|------------|-----|-----------------------------------|
E|--------------|------------|-----|-----------------------------------|
1st ending 2nd 3rd


E|---------------------------|
B|-0-0-2/4-4-4/7-7-7/9-9-9---|
G|---------------------------|
D|---------------------------|
A|---------------------------|
E|---------------------------|

E|--------------------------------------------------7-3-5`0----------------|
B|-5`0-3`0-5`0-3`0-3`0-5`0-3`0-5`0-5`0-3`0-5`0-3`0-------------------------|
G|-------------------------------------------------------------------------|
D|-------------------------------------------------------------------------|
A|-------------------------------------------------------------------------|
E|-------------------------------------------------------------------------|

E|------------------------------------------------------------0------------|
B|-3`0-0-5-0-3`0------------7/5/3/5--0-0-3-0-0-5---------------------------|
G|---------------4-2`0-2`0-----------4-4-4-4-4-4-2-2-2-2--0*1---3----------|
D|-------------------------------------------------------------------------|
A|-------------------------------------------------------------------------|
E|-------------------------------------------------------------------------|

E|------------------------------------------------------------------|
B|-3`0-0-5-0-3`0-----------------2^---------------------------------|
G|---------------4-2`0--2`0-0-0-----3-------------------------------|
D|------------------------------------2`0-{16x}----2----------------|
A|------------------------------------------------------------------|
E|----------------------------------------------3^------------------|

*middle part* mostly small bends but nothing big just repeat the intro until it starts
regular guitar again

E|-------------------------------------------------------------------------|
B|-5`0-3`0-5`0-3`0-3`0-5`0-3`0-5`0-5`0-3`0-5`0-3`0-3`0-5`0-3`0-5`0---------|
G|-------------------------------------------------------------------------|
D|-------------------------------------------------------------------------|
A|-------------------------------------------------------------------------|
E|-------------------------------------------------------------------------|

E|-------------------------------|
B|-3`0-0-5-0-3`0-----------------|
G|---------------4-2`0--2`0------|x2
D|------------------------ 2-----|
A|-------------------------------|
E|-------------------------------|


E||------------------------------------------------------------------------|
B|-5`0-3`0-5`0-3`0-3`0-5`0-3`0-5`0-5`0-3`0-5`0-3`0-3`0-5`0-3`0-5`0---------|
G|-------------------------------------------------------------------------|
D|-------------------------------------------------------------------------|
A|-------------------------------------------------------------------------|
E|-------------------------------------------------------------------------|

E|------------------------------------------------------------|
B|-3`0-0-5-0-3`0-----------------------------------------3`0-5|
G|---------------4-2`0--2`0---2-*3`0-2`0-2`0-2`0-0-4-4-4------|
D|------------------------ 2----------------------------------|
A|------------------------------------------------------------|
E|------------------------------------------------------------|

E|--------------------------------------------|
B|-----3--3-5-3-3-0-5-5---------3--------3^`0-|
G|-4-4--4---------------4-4-4-4---4-4-4--3^`0-|
D|--------------------------------------------|
A|--------------------------------------------|
E|--------------------------------------------|

E|------------------------------------------6-3|
B|-16^-3`0-5`0-3`0---------16^-3`0-5`0-3`0-----|
G|-----------------2^`0------------------------|
D|---------------------------------------------|
A|---------------------------------------------|
E|---------------------------------------------|

E|--------------------------------------------6-3-|
B|-3`0-0-5-0-3`0--------------3`0-0-5-0-3`0-0-----|
G|---------------4-2`0--2`0-----------------------|
D|------------------------ 2----------------------|
A|------------------------------------------------|
E|------------------------------------------------|

E|------------------------------------------------------------|
B|-3`0-0-5-0-3`0-----------------------------------------3`0-0|
G|---------------4-2`0--2`0---2-*3`0-2`0-2`0-2`0-0-4-4-4------|
D|------------------------ 2----------------------------------|
A|------------------------------------------------------------|
E|------------------------------------------------------------|

E|-0-0-0-0-0-0-0-0-0-0-0-0-0-0-0-0-0-0-0-0-0-0-0-0-0-0-0-------------------|
B|-3/5-5-5-5-5-5-5-5-3/5-5-5-5-5-5-5-5-8/5-5-5-5-5-5-5-5-------------------|
G|-------------------------------------------------------------------------|
D|-------------------------------------------------------------------------|
A|-------------------------------------------------------------------------|
E|-------------------------------------------------------------------------|

E|-------------------------------| |-------------------------------------|
B|-3`0-0-5-0-3`0-----------------| |----------------3`0-0----------------|
G|---------------4-2`0--2`0------|x4 |-2^-0-2`0-4-4-4----------------------|
D|------------------------ 2-----| |-------------------------------------|
A|-------------------------------| |-------------------------------------|
E|-------------------------------| |-------------------------------------|

E|-------------------------------------------------------------------------|
B|-2`0---------------------------------------------------------------------|
G|-------------------------------------------------------------------------|
D|-------------------------------------------------------------------------|
A|------------------------------------------------0------------------------|
* repeat this one note for about 3 seconds. Then pluck the open E and let both
ring

RATE THIS PLEASE IT TOOK A LONG TIME!!
Tunning: Standard (E A D G B e)
Artist: The Tragically Hip
Song: New Orleans is Sinking
Album: Up to Here(1989)

Guitar I - (E A D G B E) - "Standard Tuning"
Guitar II - (E A D G B E) - "Standard Tuning"

[Intro]
(Guitar 1)
(Riff.1)
e|---------------------|
B|---------------------|
G|---------------------| repeat this 4x
D|------2-------0-0H2--|
A|--------2---2--------|
E|--0-0-----3----------|

(Guitar 2)
e|---------------------------------|
B|--3P0---5P0---3P0----------------| repeat this 3x
G|------4-----4-----4P0-2-2P0------|
D|----------------------------2P0--| Gtr I play Riff.1 4x
A|---------------------------------| over Gtr II
E|---------------------------------|
Alright..

e|---------------------------------|
B|-----------------------0-----3-5-|
G|--3P2P0-2-2P0---0--2/4---4-4-----|
D|--------------2------------------|
A|---------------------------------|
E|---------------------------------|

[Verse]
(Guitar 1 plays Riff.1) 8x

Bourbon blues on the street loose and complete
Under skies all smoky blue-green

Guitar 2 P.M.
|--------|
e|---------------------------------|------------------------------------|
B|---------------------------------|------------------------------------|
G|------2-2-----0-0--2-2-----0-0---|---------0-0-2-X-X-----2*b3r2P0-2P0-|
D|------2-2-0H2------2-2-0H2-------|-2X2-0H2-----2-X-X-2-2--------------|
A|-7\2--0-0----------0-0-----------|-------------0-X-X-0-0--------------|
E|---------------------------------|------------------------------------|
I can forsake a dixie dead shake So we dance the sidewalk clean

[Guitar 2]
(Riff.2)
e|----------------------------------------|
B|----------------------------------------|
G|---4-4-4-4-4-4-4-4---2-2-2-2-2-2-2-2----|
D|---4-4-4-4-4-4-4-4---2-2-2-2-2-2-2-2----|
A|---2-2-2-2-2-2-2-2---0-0-0-0-0-0-0-0----|
E|----------------------------------------|

[Guitar 2]
e|-----------------------------------------------|
B|----------------3-----------3--3--3--5-----5\--|
G|--2/4--4--4--4-----4--4--4--------------4------|
D|-----------------------------------------------|
A|-----------------------------------------------|
E|-----------------------------------------------|
My memory is muddy what's this river that I'm in

[Chorus]
(Guitar 1 back to Riff.1) 6x

Guitar 2

e|---------------------------------|---------------------------------|
B|--3P0---5P0---3P0----------------|--3P0---5P0-3-3------------------|
G|------4-----4-----4P0-2-2P0------|------4--------------------------|
D|----------------------------2P0--|---------------------------------|
A|---------------------------------|---------------------------------|
E|---------------------------------|---------------------------------|
New Orleans is sinking and I don't wanna swim

e|---------------------------------|---------------------------------|
B|--3P0---5P0---3P0----------------|--3P0---5P0---3P0----------------|
G|------4-----4-----4P0-2-2P0------|------4-----4-----4P0-2*b-0------|
D|----------------------------2P0--|---------------------------------|
A|---------------------------------|---------------------------------|
E|---------------------------------|---------------------------------|

e|---------------------------------|---------------------------------|
B|--3P0---5P0---3P0----------------|---------------------------------|
G|------4-----4-----4P0-2-2P0------|--3P2P0-2-2P0---0---0~~----------|
D|----------------------------2P0--|--------------2---2----0-2-------|
A|---------------------------------|---------------------------------|
E|---------------------------------|---------------------------------|

[Verse]
(Guitar 1 play Riff.1) 8x

Colonel Tom, what's wrong? What's goin on?
Can't tie yourself up for a deal

Guitar 2 P.M
|----------------|
e|---------------------------------|---------8\----------------------|
B|---------------------------------|---------8\----------------------|
G|-----------------0-0-2-2-----0-0-|--2-2----------------------------|
D|-2-X-X-2-X-X-0H2-----2-2-0H2-----|--2-2----------------------------|
A|-0-X-X-0-X-X---------0-0---------|--0-0----------------------------|
E|---------------------------------|---------------------------------|
He said "Hey North, your South, shut your big mouth

e|---------------------------------|---------------------------------|
B|---------------------------------|---------------------------------|
G|----------0-0--------------------|-2*b3r2P0-2P0--------------------|
D|--2X2-0H2-------2-X-X-2-X-X------|---------------------------------|
A|----------------0-X-X-0-X-X------|---------------------------------|
E|---------------------------------|---------------------------------|
you gotta do what you feel is real"

[Chorus]
(Guitar 1 play Riff.2 once)

Guitar 2
e|-----------------------------------------------|
B|----------------3-----------3--3--3--5-----5\--|
G|--2/4--4--4--4-----4--4--4--------------4------|
D|-----------------------------------------------|
A|-----------------------------------------------|
E|-----------------------------------------------|
Ain't got no picture postcards ain't got no souvenirs

(Guitar 1 play Riff.1) 6x

Guitar 2

e|---------------------------------|---------------------------------|
B|--3P0---5P0---3P0----------------|--3P0---5P0-3-3------------------|
G|------4-----4-----4P0-2-2P0------|------4--------------------------|
D|----------------------------2P0--|---------------------------------|
A|---------------------------------|---------------------------------|
E|---------------------------------|---------------------------------|
My baby she don't know me when I'm thinking about those years

e|---------------------------------|---------------------------------|
B|--3P0---5P0---3P0----------------|--3P0---5P0---3P0----------------|
G|------4-----4-----4P0-2-2P0------|------4-----4-----4P0-2*b-0------|
D|----------------------------2P0--|---------------------------------|
A|---------------------------------|---------------------------------|
E|---------------------------------|---------------------------------|

e|-------------------------------------------------------------------|
B|--3P0---5P0---3P0-------------------------------/3-3-3-3/5-5-5-5---|
G|------4-----4-----4P0-2P0-3P0-2P0-2P0-2/4-4-4-4--------------------|
D|-------------------------------------------------------------------|
A|-------------------------------------------------------------------|
E|-------------------------------------------------------------------|

[Solo]

(Guitar 1)
Riff.3
e|-------------------------------------------------------------------|
B|-------------------------------------------------------------------|
G|--4-------------2-------------4-------------2----------------------|
D|--4-------------2-------------4-------------2----------------------|
A|--2-------------0-------------2-------------0----------------------|
E|-------------------------------------------------------------------|

Guitar 2

e|---------------------------------------------------5/7-3-5P3-------|
B|--5P0-3P0-5P0-3P0-3P0-5P0-3P0-5P0-5P0-3P0-5P0-3P0------------------|
G|-------------------------------------------------------------------|
D|-------------------------------------------------------------------|
A|-------------------------------------------------------------------|
E|-------------------------------------------------------------------|

Guitar I play Riff.1 2x then Riff.2 once

e|--------------------------------0---0-0-0-0-0-----0---0-0----------|
B|--3P0---5P0---3P0---------------3/7\5\3/5/3-0-0---3---3-5-0---0----|
G|------4-----4-----4P0-2P0-2P0-----------------2/4---4-----4\2-2----|
D|-------------------------------------------------------------------|
A|-------------------------------------------------------------------|
E|-------------------------------------------------------------------|

(Guitar 1 play Riff.1) 10x

Guitar 2

e|------0------------------------------------------------------------|
B|--------3--3P0---5P0---3P0--------------------3--------------------|
G|--0H1----------4-----4-----4P0-2-2P0-----2*b4----------------------|
D|-------------------------------------2P0--------2P0[16x]-------2---|
A|-------------------------------------------------------------------|
E|-----------------------------------------------------------3b------|

e|-------------------------------------------------------------------|
B|-------------------------------------------------------------------|
G|------------------------------------------------2P0-----0-2P0------|
D|-----XX2*b3=====r2P0-2P0------0---XX0H2P0H2P0-------XX2------------|
A|--X-----------------------------2----------------------------------|
E|-------------------------3b----------------------------------------|


e|-------------------------------0-0---------------------------------|
B|---------------------3-3-3--3--5-3-0------------------------------|
G|--X2P0-2P0---0-0-2/4---4-4-4-4-----4------------------------------|
D|-----------2-------------------------------------------------------|
A|-------------------------------------------------------------------|
E|-------------------------------------------------------------------|

[Verse]

(Guitar 1 play Riff.1) 24x

Guitar 2

e|-------------------------------------------------------------------|
B|--------------2/3--------------------------------------------------|
G|--------------3/4--------------------------------------------------|
D|-------------------------------------7\2-2-------------------------|
A|-------------------------------------------------------------------|
E|-------------------------------------------------------------------|
Pale as a light bulb hanging on a wire

e|-------------------------------------------------------------------|
B|-------------------------------------------------------------------|
G|-------------------------------------------------------------------|
D|-------------2------2-0-X-X-0-0H2----------------------------------|
A|-----X-------------------------------------------------------------|
E|----------3b-------------------------------------------------------|
Sucking up to someone just to stoke the fire

e|-------------------------------------------------------------------|
B|-------------------------------------------------------------------|
G|-------------------------------------------------------------------|
D|-----XX2-X--X--X--X--2*b---X--X--X--X---XX2P0-----0H2--------------|
A|---------X--X--X--X--------X--X--X--X---------0H2------------------|
E|-------------------------------------------------------------------|
Picking out the highlights of the scenery

e|-------------------------------------------------------------------|
B|-------------------------------------------------------------------|
G|-----------------------------------------3P0-2P0-----2*b3-0--------|
D|----2-0------XX2P0-----0H2--X--X--X--X-----------2P0---------X--X--|
A|-------------------0H2------X--X--X--X-----------------------X--X--|
E|-------------------------------------------------------------------|
Saw a little cloud that looked a little like me

e|-------------------------------------------------------------------|
B|-X--X----5*b-5*b--X-X-X-5---5*b7r5b7r57--------------3--3~---------|
G|-X--X-------------X-X-X---------------------------------4~---------|
D|-------------------------------------------------------------------|
A|-------------------------------------------------------------------|
E|-------------------------------------------------------------------|

e|-------------------------------------------------------------------|
B|-------------------------------------------------------------------|
G|-------------------------------------------------------------------|
D|-------X-X--2-0-----0-0H2------------X-X---2-0-----0-0H2-----------|
A|----------------X-X----------------------------X-X-----------------|
E|-------------------------------------------------------------------|
I had my hands in the river my feet back up on the banks

e|-------------------------------------------------------------------|
B|-------------------------------------------------------------------|
G|--------------------------------------------2*b-0------------------|
D|--X-X-2-0-----0-0H2-----------------X-X-2-0------------------------|
A|----------X-X------------------------------------------------------|
E|-------------------------------------------------------------------|
Looked up to the Lord above and say "Hey man, thanks"

e|-------------------------------------------------------------------|
B|-------------------------------------------------------------------|
G|------------------------------------0-2*b--------------------------|
D|---X-X-2-0----0-0H2----------X-X-----------------------------------|
A|-----------X2------------------------------------------------------|
E|-------------------------------------------------------------------|
sometimes I feel so good I gotta scream

e|-------------------------------------------------------------------|
B|-------------------------------------3~--3-------------------------|
G|-------------------------------------4~--4\2-----------------------|
D|---X-X-2-0-----0-0H2--------X-X------------0-----------------------|
A|-----------X-X-----------------------------------------------------|
E|-------------------------------------------------------------------|
She said "Gordie baby, I know exactly what you mean"

e|-------------------------------------------------------------------|
B|-----------------------------------------------------3~------------|
G|----------2*b-0--------0--2*b-----------2*b-0--------4~------------|
D|--X-X-2-0--------X-X-2--------X-X-2-0------------------------------|
A|--------------------------------------X----------------------------|
E|-------------------------------------------------------------------|
She said, she said, I swear to God she said

[Outro]

(Guitar 1 play Riff.3 once)

Guitar 2

e|-------------------------------------------------------------------|
B|--5P0-3P0-5P0-3P0-3P0-5P0-3P0-5P0-5P0-3P0-5P0-3P0-3P0-5P0-3P0-0----|
G|-------------------------------------------------------------------|
D|-------------------------------------------------------------------|
A|-------------------------------------------------------------------|
E|-------------------------------------------------------------------|
Haaaaaaaaaaaaaaaaaaaaaaaahhhhhh...

(Guitar 1 play Riff.1) 2x

Guitar 2

e|---------------------------------|
B|--3P0---5P0---3P0----------------| repeat this 2x
G|------4-----4-----4P0-2-2P0------|
D|----------------------------2P0--|
A|---------------------------------|
E|---------------------------------|

(Guitar 1 play Riff.3 once)

Guitar 2

e|-------------------------------------------------------------------|
B|--5P0-3P0-5P0-3P0-3P0-5P0-3P0-5P0-5P0-3P0-5P0-3P0-3P0-5P0-3P0-5P0--|
G|-------------------------------------------------------------------|
D|-------------------------------------------------------------------|
A|-------------------------------------------------------------------|
E|-------------------------------------------------------------------|
Noooooooooo.... Yeah!...

(Guitar 1 play Riff.3 once)

Guitar 2

e|-------------------------------------------------------------------|
B|--3P0---5P0---3P0-------------------------------------------3P0----|
G|------4-----4-----4P0-2-2P0-------3P2P0-2-2P0---0-2/4-4-4----------|
D|----------------------------2P0---------------2--------------------|
A|-------------------------------------------------------------------|
E|-------------------------------------------------------------------|

(Guitar 1 play Riff.2 once)

Guitar 2

e|-----------------------------------------------|
B|---------3-----3--5-----3----3/5--55-----------|
G|-2/4--4-----4--------/4---4--------------------|
D|-----------------------------------------------|
A|-----------------------------------------------|
E|-----------------------------------------------|
My memory is muddy what's this river that I'm in

e|-----------------------------------------------|
B|--------------3---------------------3P0--------|
G|--4--4--4--4-----4--4--4\2----------3P0--------|
D|-----------------------------------------------|
A|-----------------------------------------------|
E|-----------------------------------------------|
New Orleans is sinking and I don't wanna swim

(Guitar 1 play Riff.1) 20x

Guitar 2

e|---12\-----------------------12\---------------5*b-3-----|
B|---X---0-3P0-5P0-3P0---------X---0-3P0-5P0-3P0-----------|
G|---X-----------------2*b-0---X---------------------------| repeat this 4x
D|---X-------------------------X---------------------------|
A|---------------------------------------------------------|
E|---------------------------------------------------------|
Swim! Swim!

e|---------------------------------|----------------------5*b-3-5P3--|
B|--3P0---5P0---3P0----------------|--3P0---5P0---3P0----------------|
G|------4-----4-----4P0-2-2P0------|------4-----4-----4P0------------|
D|----------------------------2P0--|---------------------------------|
A|---------------------------------|---------------------------------|
E|---------------------------------|---------------------------------|

e|---------------------------------|---------------------------------|
B|--3P0---5P0---3P0----------------|---------------------------------|
G|------4-----4-----4P0-2-2P0------|--3P2P0-2P0-2P0---0-2/4-4-4-4----|
D|----------------------------2P0--|----------------2----------------|
A|---------------------------------|---------------------------------|
E|---------------------------------|---------------------------------|

e|--0---0-0-0-0-0-0-0-0---0-0-0-0-0-0-0-0---0-0-0-0-0-0-0------------|
B|--3/5-5-5-5-5-5-5-5-3/5-5-5-5-5-5-5-5-8\5-5-5-5-5-5-5-5------------|
G|-------------------------------------------------------------------|
D|-------------------------------------------------------------------|
A|-------------------------------------------------------------------|
E|-------------------------------------------------------------------|

e|---------------------------------|
B|--3P0---5P0---3P0----------------| repeat this 4x
G|------4-----4-----4P0-2-2P0------|
D|----------------------------2P0--|
A|---------------------------------|
E|---------------------------------|

e|---------------------------------|
B|----------------3----------------|
G|--2*b-0-2P0-2/4---4--------------|
D|---------------------2P0[12x]----|
A|---------------------------------|
E|--------------------------0------|



************************************

| / Slide up
| r Release
| \ Slide down
| ~ Vibrato
| b Bend

************************************
Song info
New Orleans Is Sinking
The Tragically Hip
2001
  • Rock
  • Alternative Rock
  • Blues Rock
Alternative tracks
Similar songs
Sound Of Madness - Shinedown
Sick Of Drugs - The Wildhearts
Shake Me - Cinderella
You - Candlebox

Hi! Hope you enjoy backing track experience.
If you want to help us in the development of the project, feel free to donate!