Wont Get Fooled Again - The Who
00:00 / 00:00
Tabs and lyrics
Tunning: Standard (E A D G B e)
The Who
Won't Get Fooled Again
Who's Next - 1971

Standard Tuning

This is how the organ part translates to guitar:
follow the pace of the organ and it will sound right.

e|--------------------------------------------------------|
B|-2-2-2-2-2-2--3-2--5-5-5-5-5-5--3-2--3-3-3-3-3-3--3-2---|
G|-2-2-2-2-2-2--2-2--2-2-2-2-2-2--2-2--0-0-0-0-0-0--0-0---|
D|-2-2-2-2-2-2--2-2--2-2-2-2-2-2--2-2--0-0-0-0-0-0--0-0---|
A|-0-0-0-0-0-0--0-0--0-0-0-0-0-0--0-0---------------------|
E|--------------------------------------------------------|

e|----------------------------------------|
B|-2-2-2-2--3-3-3-3--2-0-2-3-2-0-2-3------|
G|-2-2-2-2--2-2-2-2--2-2-2-2-2-2-2-2------|
D|-3-3-3-3--3-3-3-3--3-3-3-3-3-3-3-3------|
A|----------------------------------------|
E|----------------------------------------|

(((Repeat 3 Times)))
e|---------------------------------------------|
B|-5-3-2-2-5-3-2-2---5-3-2-2-5-3-2-2-----------|
G|-2-2-2-2-2-2-2-2---2-2-2-2-2-2-2-2-----------|
D|-2-2-2-2-2-2-2-2---3-3-3-3-3-3-3-3-----------|
A|---------------------------------------------|
E|---------------------------------------------|

e|--------------------------------------------------------|
B|-2-2-3-2-2-2-3-2--2-2-3-2-2-2-3-2--2-2-3-2-2-2-3-2------|
G|-2-2-2-2-2-2-2-2--2-2-2-2-2-2-2-2--2-2-2-2-2-2-2-2------|
D|-2-2-2-2-2-2-2-2--0-0-0-0-0-0-0-0--3-3-3-3-3-3-3-3------|
A|-0-0-0-0-0-0-0-0--0-0-0-0-0-0-0-0--0-0-0-0-0-0-0-0------|
E|--------------------------------------------------------|

e|---------------------------------------------------------|
B|-2-2-3-2-2-2-3-2--2-2-3-2-2-2-3-2--2-2-3-2-2-2-3-2-------|
G|-2-2-2-2-2-2-2-2--2-2-2-2-2-2-2-2--2-2-2-2-2-2-2-2-------|
D|-5-5-5-5-5-5-5-5--4-4-4-4-4-4-4-4--4-4-4-4-4-4-4-4-------|
A|-0-0-0-0-0-0-0-0--0-0-0-0-0-0-0-0--0-0-0-0-0-0-0-0-------|
E|---------------------------------------------------------|end-intro


Chords after intro: A G D A G D

A G D
We'll be fighting in the streets
A G D
With our children at our feet
A E G D
And the morals that they worship will be gone
A G D
And the men who spurred us on
A G D
Sit in judgement of all wrong
A E G D
They decide and the shotgun sings the song


CHORUS:
D A D A
I'll tip my hat to the new constitution
D A D A
Take a bow for the new revolution
D A D A
Smile and grin at the change all around
G E
Pick up my guitar and play
G E
Just like yesterday
G D
Then I'll get on my knees and pray
D D D A G D A G D
We don't get fooled again


A G D
The change, it had to come
A G D
We knew it all along
A E G D
We were liberated from the foe, that's all
A G D
And the world looks just the same
A G D
And history ain't changed
A E G D
'Cause the banners, they'd all flown in the last war


CHORUS


INTERLUDE:
B
I'll move myself and my family aside
E
If we happen to be left half alive
A
I'll get all my papers and smile at the sky
B B A E B A E
For I know that the hypnotized never lie
(ORGAN SOLO)


A G D
There's nothing in the street
A G D
Looks any different to me
A E G D
And the slogans are replaced, by-the-by
A G D
And the party on the left
A G D
Is now the party on the right
A E G D
And their beards have all grown longer overnight

CHORUS

A A G D
Meet the new boss
A A G D
Same as the old boss

A G D A G D A A A A A~~~~

-Jols
Tunning: Standard (E A D G B e)
Band: The Who
Song: Won't Get Fooled Again (Full Length Version)
Album: Who's Next
Tabber: clark@theoddmenout.com

~= ring out chord
*= mute note

[Intro] x2
e|-----------------------|----------|----------------|
B|-----------------------|----------|----------------|
G|--2~--ring till 00:30--|----2~----|----2--2-2-2----|
D|--2~-------------------|----2~----|----2--2-2-2----|
A|--0~-------------------|----0~----|----0--0-0-0----|
E|-----------------------|--3-------|--3-------------|

[Verse 1] Lead: (00:44)
(A) (D) (A) (D) (A) (D) (E) (C)(G)
e|---------------------------------------------------------------0---------|
B|--7p5/3---------2-2-------------------------2------------------0---1--3--|
G|--------2-2-----2-2-------2-x-2-2-----------2------------------1---0--0--|
D|--------------------------2-x----------------------------------2---2--0--|
A|----------------------0---0-x---------0---0-----------0-----2------3-----|
E|---------------------------------------------------------3--0---------3--|
"Fighting..." "Children..." "Morals..." "Will Be..."

(A) (D) (A) (D) (A) (D) (E) (C)(G)
e|-------------------------------------------------0---------|
B|---------------2-----2--------2-------2----------0---1--2--|
G|--2------------2-----2--------2-------2----------1---0--0--|
D|--2------------2--------------2------------------2---2--0--|
A|--0------0---0---------0----------------------2------3-----|
E|----------------------------------------3h5-3-0---------3--|
"Men..." "Judgment..." "Decided..." "Seems.."

[Verse 1] (Chords)
A D
We'll be fighting in the streets
A D
With our children at our feet
A D E C G
And the morals that they worship will be gone
A D
And the men who spurred us on
A D
Sit in judgement of all wrong
A D E C G
They decide and the shotgun sings the song

[Chorus Lead 1] (01:13)
(D) (A) x6
e|----2--------|------4---2---0---------7--------4---2--------4---------7--|
B|------3------|-----------------------------------------------------------|
G|--------2-2--|--2/4---4---x------5-/7------2/4---4---x-2-/4------2/4-----|
D|-------------|-----------------------------------------------------------|
A|-------------|-----------------------------------------------------------|
E|-------------|-----------------------------------------------------------|
"Tip..." "Play.." "Yesterday..."

(D) (G)(D)
e|--2---x-3--2----2~--|
B|--3---x-3--3----3~--|
G|--2---x-0--2----2~--|
D|--0-----0--0----0~--|
A|--------------3-----|
E|--------3-----------|
"Pray..." "We don't get fooled agin!"

[Chorus]
D A D A
I'll tip my hat to the new constitution,
D A D A
Take a bow for the new revolution,
D A D A
Smile and grin at the change all around me,
G E
Pick up my guitar and play
G E
Just like yesterday
G D G D
Then I'll get on my knees and pray...

We don't get fooled again

[Interlude 1] (01:40)
e|--------3---2----------3----2--|
B|--2~----3-3-3-----2----3--3-3--|
G|--2~----0-0-2-----2----0--2-2--|
D|--2~----0-0-0-----2----0--0-0--|
A|--0~--------------0------------|
E|--------3-------3------3-------|

e|-----5-----5------5-----------------5-------------|
B|-----5-----5------5-----3-----------5-----3--2-3--|
G|-----2-2---2-2-2--2-2-2-2--2-2-2------2-2-2----2--|
D|------------------------0--0-0-0---------------0--|
A|--0------------------------0-0-0---------------0--|
E|--------------------------------------------------|
* * *

[Verse 2 Lead] (01:54)
(A) (D) (A) (D) (A) (D) (E) (C)(G)
e|-----------------------------------------------0---------|
B|--2~-------------------------------------------0---1--3--|
G|--2~-----------2-2~----------2-2~--------------1---0--0--|
D|--2~-------------------------------------------2---2--0--|
A|--0~------0------------0---0-------------0---------3-----|
E|-------------------------------------------3-0--------3--|
"Change..." "Knew.." "Liberated..." "That's all..."

(A) (D) (A) (D) (A) (D) (E) (C)(G)
e|----------------------5------------------5-------------0---------|
B|----------10/3-10/3---5-----10/3-10/3----5-------------0---1--3--|
G|--2~---------------------------------------------------1---0--0--|
D|--2~---------------------------------------------------2---2--0--|
A|--0~-------------------------------------------------------3-----|
E|-----------------------------------------------------0--------3--|
"World..." "History..." "Banners..."

[Verse 2]
A D
The change, it had to come,
A D
We knew it all along
A D E C G
We were liberated from the fold, that's all
A D
And the world looks just the same
A D
And history ain't changed
A D E C G
'Cause the banners, they are flown in the next war

[Chorus Lead 2] (2:22)
(D) (A) x6
e|----2--------|--7p5p3-3-3----------7---12-12--12-12--12--12--|
B|------3------|------------5----------------------------------|
G|--------2-2--|----------------5-/7---------------------------|
D|-------------|-----------------------------------------------|
A|-------------|-----------------------------------------------|
E|-------------|-----------------------------------------------|
"Tip..." "Play..." "Yesterday..."

(G) (D) (G)(D) (G)(D)
e|----3-----2----------------|
B|----3---------3--3---3--3--|
G|--------------0--2---0--2--|
D|--------------0--0---0--0--|
A|---------------------------|
E|---------------------------|
"Get..." "Pray... "We don't get fooled again..."

[Interlude 2] (02:49) x4
e|--------------------------------|---------------------------|
B|--2~------3--------3---2~---3~--|--2-----------2------2--2--|
G|--2~------0-4b5rp2-2---2~---0~--|--2---2---2---2------3--3--|
D|--2~------0--------0---2~---0~--|--2---2---2---2------0--0--|
A|--0~-------------------0~-------|--0---0---0---0------------|
E|----------3-----------------3~--|---(3)--3-------h3-0-------|

e|--5-----5-----5----------------5-----5-----5-----------------|
B|--5-----5-----5----------------5-----5-----5-----------------|
G|--2-2-2-2-2-2-2--2-2-2-2-2-2---2-2-2-2-2-2-2-2--2-2-2-2-2-2--|
D|-----------------0-0-0-0-0-0--------------------0-0-0-0-0-0--|
A|-----------------0-0-0-0-0-0--------------------0-0-0-0-0-0--|
E|-------------------------------------------------------------|
* * * * * * * * * * * *
e|------------------------------5-----5---------|
B|--2-0---------------2-0-------5-----5-----3~--|
G|------2-2-2----2--2-----2-----2-2---2-----2~--|
D|--------------------------2-------2---2-0-0~--|
A|-------------0----------------------------0~--|
E|----------------------------------------------|
(This part hard to hear^)

[Bridge Lead] (03:24) (This part also hard to hear but this correct)
(B) (E)
e|--------------------------------0~---------------------|
B|--------------------------------0~---------------------|
G|-----4~---------2---------------1~---------------------|
D|--4--4~-----2/4---4-2------2----2~------------2-----2--|
A|--2--2~----------------2-4----------------2h4---2h4----|
E|------------------------------0------------------------|
"Move..." "Family..." "If..." "Alive..."

e|----------------5--------------------|
B|----2~--------5----------------------|
G|----2~----4b5-----4br-2----4~--------|
D|----2~---------------------4~--------|
A|--0------------------------2~--------|
E|-------------------------------------|
"Get..." "Smile..." "Know..."

[Bridge] (chords)
B
I'll move myself and my family aside,
E
If we happen to be left half alive!
A
I'll get all my papers and smile at the sky,
B
Though I know that the hypnotized never lie...

[Interlude 3] (03:38) x3
e|-----------------------|-----------------------|
B|-----------------------|-----------------------|
G|--4----4-x-4--2-2---1--|--4----4--x-x-2-2---1--|
D|--4----4-x-4--2-2---2--|--4----4--x-x-2-2---2--|
A|--2----2-x-2--0-0-0-2--|--2----2--x-x-0-0-0-2--|
E|--------------------0--|--------------------0--|

[Solo] (03:54)
e|-------------------5--5-5-5p4-5-4---5--5-5-5-4--4-4-4-2---------|
B|--3--------7/5--------------------5----------------------3------|
G|-----4~--------7-7------------------------------------------4~--|
D|----------------------------------------------------------------|
A|----------------------------------------------------------------|
E|----------------------------------------------------------------|

e|--6b7--7-7h5-4-4-5-4-----------------------------------------------|
B|-----------------------7b-7b-7b-7br--------------------------------|
G|-----------------------7b-7b-7b-7br-----------2--2-4v--4-2---2-----|
D|------------------------------------6-4---2/4--------------4----0--|
A|-------------------------------------------------------------------|
E|-------------------------------------------------------------------|

e|-----------------------------------------0---------------------------|
B|----------------------4--4--4-3-2-0~---5-----5-5-------4---4-3-2-0~--|
G|---------------------------------------------------------------------|
D|--4--4--4-2-4-2~-----------------------------------2/4---4-----------|
A|---------------------------------------------------------------------|
E|---------------------------------------------------------------------|

It's very hard to tell what's going on during the solo cuz there's the sythesizer and
guitar overlaying, so, especially for the first part, this gives the right idea, but may
every single note.

[Interlude 4] (04:22)
e|------------3--2-------------3--2--------------3--2-------------3-3-2~--|
B|--2~--------3--3----2~-------3--3----2~--------3--3----2~-------3-3-3~--|
G|--2~--------0--2----2~-------0--2----2~--------0--2----2~-------0-0-2~--|
D|--2~--------0--0----2~-------0--0----2~--------0--0----2~-------0---0~--|
A|--0~----------------0~---------------0~----------------0~---------------|
E|------------------------------------------------------------------------|
"Yeah!"

[Verse 3 Lead] (04:36)
(A) (D) (A) (D) (A) (D) (E) (C) (G)
e|-------------------------------------------------------------0------------|
B|----------------------------------3~-----2--2-------3-3------1---1-1---3--|
G|-------4b5r-p2p0-2----------------2~-----2--2----x--2-2------2---0-0---0--|
D|------------------------2-------0-0~-----2--2----x--0-0------2---2-2---0--|
A|--------------------3b--0-------------0--0--0--------------2-----3-3-0----|
E|-----------------------------------------------------------0-----------3--|
"Nothing..." "Looks..." "Slogans..." "By-the-bye..."

(A) (D) (A) (D) (A) (D) (E) (C) (G)
e|-------------------------------------------------5---0~------------|
B|-----------------------------------------------------0~----1----3--|
G|----4b5r--2p0--2--------2~--------------2--2--2------------0----0--|
D|------------------------2~---------------------------------2----0--|
A|--------------------0---0~----------0----------------------3--0----|
E|----------------------------------------------------------------3--|
"Parting..." "Parting..." "Beards..." "Overnight..."

[Verse 3] (Chords)
A D
There's nothing in the streets
A D
Looks any different to me
A D E C G
And the slogans are replaced, by-the-bye
A D
And the parting on the left
A D
Are now parting on the right
A D E C G
And the beards have all grown longer overnight

[Chorus Lead 3] (05:05)
(D) (A) x6
e|----2--------|---------12-10------------------------------------|
B|------3------|--3~-----------12-10----8-------------------------|
G|--------2-2--|--0~-----------------12---9-----11b12r-9----9-11--|
D|-------------|--0~-------------------------------------11-------|
A|-------------|--------------------------------------------------|
E|-------------|--3~----------------------------------------------|
"Pick up..." "Yesterday..."

e|--------------------------------------10---------|
B|-----------------------------------10------------|
G|--11-11b12--b12r-9----9/11-11---12-------12-11---|
D|-------------------12----------------------------|
A|-------------------------------------------------|
E|-------------------------------------------------|
"Get..." "Pray..." "We don't get fooled again!"

[Interlude 5] (05:31)
This also gets pretty crazy towards the end, so listen to the song to grasp what's going
and this should make sense.
e|--------------------------------------------------------------------------|
B|--2~------------2~--------3~----------2~-------3~----------2~-------------|
G|--2~------------2~--------2~----------2~-------2~----------2~---------2~--|
D|--2~------------2~--------0~----------2~-------0~----------2~---------0~--|
A|--0~------------0~--------0~--------0-0~-----------------0-0~---------0~--|
E|--------------------------------------------------------------------------|

e|-----------------------------5-----5-----5------------------|
B|--2-0-------2-0---3-3-3-3----5-----5-----5---3-3-3-3-3-3-3--|
G|------2-2---2-2-2-2-2-2-2----2-2-2-2-2-2-2-2-2-2-2-2-2-2-2--|
D|------------------0-0-0-0--------------------0-0-0-0-0-0-0--|
A|------------------0-0-0-0--------------------0-0-0-0-0-0-0--|
E|------------------------------------------------------------|
* * * * * * * * * * * * * *

e|--5-----5-----5-------------------5-----5--------------------------|
B|--5-----5-----5---3-3-3-3-3-3-3---5-----5--------------------------|
G|--2-2-2-2-2-2-2-2-2-2-2-2-2-2-2---2-2-2-2-2-x----------------------|
D|------------------0-0-0-0-0-0-0--------------------2-4-------------|
A|------------------0-0-0-0-0-0-0---------------3b4------3b4--0-2-0--|
E|-------------------------------------------------------------------|
* * * * * * *

e|--5-----5--------------------------------------------------------|
B|--5-----5-----3--3---3-------------------------------------------|
G|--2-2-2-2-2-2-0--2---2--2p0-2p0-2p0-2p0-2p0-2p0-2p0-2p0-2p0-2p0--|
D|--------------0--0---0-------------------------------------------|
A|-----------------------------------------------------------------|
E|--------------3--------------------------------------------------|

e|--------------------------------------------------------------------------|
B|--2--2----2---3-3--3--3-3---17b18--17b18--17b18-17b18-17--------17--------|
G|--2--2----2---0-0--2--2-2---17b18--17b18--17b18-17b18----17-16--17-16-14--|
D|--2--2----2---0-0--0--0-0-------------------------------------------------|
A|--0--0----0---------------------------------------------------------------|
E|--------------3-3---------------------------------------------------------|

e|--5-----5-----5-----5-----5--------5-----5-----5----------2--3--|
B|--5-----5-----5-----5-----5--------5-----5-----5------2---3--3--|
G|--2-0-0-2-0-0-2-0-0-2-0-0-2-0-0----2-0-0-2-0-0-2-0-0--2---2--0--|
D|------------------------------------------------------2---0-----|
A|------------------------------------------------------0---------|
E|----------------------------------------------------------------|

e|-------------------3--3---------------------------------------------|
B|--2~----------3-3--3--3---17b---17b---17b--17b17b17b17b17b17b--17b--|
G|--2~-----2----2-2--0--0---17b---17b---17b--17b17b17b17b17b17b--17b--|
D|--2~-----2----0-0--0--0---------------------------------------------|
A|--0~-----0----------------------------------------------------------|
E|--------------------------------------------------------------------|

e|---------------------------------------------------------------------|
B|---------17-------------------------2~-------------------------------|
G|--17b18-----17-14-b16r--------------2~------------------2~-----------|
D|-----------------------12-/10-10----2~------------------2~-----------|
A|----------------------------------3-0~------------------0~-----------|
E|---------------------------------------------------------------------|

---------------------------------INTERMISSION-------------------------------

No guitar until 07:45

e|-----------------------------------------------|
B|--2~---------3---3-----2~-----------3----3~----|
G|--2~---------0-x-2-----2~-----------0--x-2~----|
D|--2~---------0-x-0-----2~-----------0--x-0~----|
A|--0~-----------------0-0~----------------------|
E|-------------3----------------------3----------|
"YEAH!!!"

[Outro Verse Lead] (07:52)
(A) (G) (D) (A) (G) (D)
e|------------------------------------------|
B|--2~--------3--x-3----2~--------3--x-3----|
G|--2~--------0--x-2----2~--------0--x-2----|
D|--2~--------0----0----2~--------0----0----|
A|--0~------------------0~------------------|
E|------------3-------------------3---------|
"Meet the new boss...Same as the old boss"

[Outro Verse] (Chords)
A G D
Meet the new boss
A G D
Same as the old boss

[Outro] (07:59)
x4
e|---------------------2-2--|--5-----5-----5-----------5-----5-----5--------|
B|---------------------3-3--|--5-----5-----5-----3-----5-----5-----5-----3--|
G|--2--x--2--x--2-2----2-2--|--2-2-2-2-2-2-2-2-2-2---2-2-2-2-2-2-2-2-2-2-2--|
D|--2--x--2--x--2-2----0-0--|--------------------0---2-------------------0--|
A|--0--x--0--x--0-0---------|------------------------0----------------------|
E|------------------3-------|-----------------------------------------------|

e|--0---0---0---0--------------------|
B|--2---2---2---2---2~---------------|
G|--2---2---2---2---2~---------------|
D|--2---2---2---2---2~---------------|
A|--0---0---0---0---0~---------------|
E|-----------------------------------|

Wow, this tab was a huge, lengthy ordeal, but I hope it was worth it. This is a great
and I hope (for the first time) you guys will be able to play it start to finish...

That's it! For suggestions, corrections, and requests, email me:
oddmenout4@yahoo.com

************************************

| x Dead note
| (n) Ghost note
| h Hammer-on
| p Pull-off
| r Release
| b Bend
| br Bend release
| / Slide up
| ~ Vibrato

************************************
Tunning: Standard (E A D G B e)
Won't Get Fooled Again (Pete Townshend)
The Who
Who's Next?


Intro:

Guitar I (Electric)
|------------------------------------------------------------------------------------------|
|------------------------------------------------------------------------------------------|
|-2----------------------------------------------------------------------------------------|
|-2----------------------------------------------------------------------------------------|
|-0----------------------------------------------------------------------------------------|
|------------------------------------------------------------------------------------------|
|Guitar II (Synthesizer Tab for Guitar)
|-------------------9----12-12-12-12-12-12-10-9-10-10-10-10-10-10-9----9-9-9-9-10-10-10-10-|
|-10-10-10-10-10-10---12--------------------------------------------12---------------------|
|------------------------------------------------------------------------------------------|
|------------------------------------------------------------------------------------------|
|------------------------------------------------------------------------------------------|
|------------------------------------------------------------------------------------------|

Guitar II
|-9----9-10-9----9-10-12-10-9----12-10-9----12-10-9----12-10-9----12-10-9----12-10-9----12-10-9----|
|---12--------12--------------10---------10---------10---------10---------10---------10---------10-|
|--------------------------------------------------------------------------------------------------|
|--------------------------------------------------------------------------------------------------|
|--------------------------------------------------------------------------------------------------|
|--------------------------------------------------------------------------------------------------|

|-12-10-9----12-10-9----12-10-9----12-10-9----12-10-9--------9-10-9----9-10-9----9-10-9----9-10-9-|
|---------10---------10---------10---------10---------10--10--------10--------10--------10--------|
|-------------------------------------------------------------------------------------------------|
|-------------------------------------------------------------------------------------------------|
|-------------------------------------------------------------------------------------------------|
|-------------------------------------------------------------------------------------------------|

|----9-10-9----9-10-9----9-10-9----9-10-9----9-10-9----9-10-9----9-10-9----|
|-10--------10--------10--------10--------10--------10--------10--------10-|
|--------------------------------------------------------------------------|
|--------------------------------------------------------------------------|
|--------------------------------------------------------------------------|
|--------------------------------------------------------------------------|


(Guitar Come In)

(00:30)
|------------------------------------------------------|
|------------------------------------------------------|
|---2--------2--------2---2---2------------6r4p2---2---|
|---2--------2--------2---2---2------------------------|
|---0--------0--------0---0---0------------------------|
|-3--------3--------3----------------------------------|


(From "We'll be fighting in the streets...")
|-----------------------------------------------0---0------|
|-----------------------------------------------0---1----3-|
|-2-------------------2-------------------------1---0----0-|
|---2-----2--2-2-----------2-2----------------------2----0-|
|---0---0-0--------0----0--0-0----0-----------------3------|
|------------------------------------3b3.5--0----------3---|

(From "And the men who spurred us on...")
|----5-----------5----5---------5---------------------0---0------|
|----5-----------5----5---------5---------------------0---1----3-|
|----6-----------6--------------6-----2---------------1---0----0-|
|---------------------------------------------------------2----0-|
|-0-------0---0----------0---0----------------------------3------|
|---------------------------------------3b3.5--3--0----------3---|

(From "I tip my hat to the new constitution...")
Guitar
|---2---5-------2---5-----------2---5-------2---5-----------2---5-------2---5-------|
|-----------------------------------5-----------------------------------------------|
|-----------------------------------------------------------------------------------|
|-----------------------------------------------------------------------------------|
|-0---0-------0---0-----------0---0-------0---0-----------0---0-------0---0---------|
|-----------------------------------------------------------------------------------|
|Bass
|-----------------------------------------------------------------------------------|
|-4-2---------4-2-------------4-2---------4-2-------------4-2---------4-2-----------|
|-----4-2-0-------4-2-4-2-0-------4-2-0-------4-2-4-2-0-------4-2-0-------4-2-0-----|
|-------------------------------------------------------------------------------2-0-|

(From "Pick up my guitar and play...")
|----3-------4----2----0-------7-----4----2-------4------7----2----3--2--------2-|
|----3--------------------------------------------------------3----3--3--------3-|
|---------/4----2----1-----4/7----/4----2-----1/4-----/7------2----0--2--------2-|
|-------------------------------------------------------------0----0--0--------0-|
|--------------------------------------------------------------------------3-----|
|-3------------------------------------------------------------------------------|

|------3--2---------3--2-------5-----5-----5------2--2-2-2----5-----5-5--2--|
|-2----3--3----2----3--3-------5-----5-----5------3--3-3-3----5-----5-5--3--|
|-2----0--2----2----0--2--------------------------2--2-2-2---------------2--|
|-2----0--0----2----0--0--------------------------0--0-0-0---------------0--|
|-0------------0------------0----0-0---0-0---0-0------------0---0-0---------|
|---------------------------------------------------------------------------|

(From "The change it had to come...")
|---------------------------------------------0----0------|
|---------------------------------------------0----1----3-|
|-2----------2-2----------2-2-----------------1----0----0-|
|-2------------------------------------------------2----0-|
|-0------0----------0--0--------0------------------3------|
|----------------------------------3b3.5--0-----------3---|

(From "And the world looks just the same...")
|--------9\---9\---9------9\---9\---9-------------0----0------|
|-------10\--10\--10-----10\--10\--10-------------0----1----3-|
|--------9\---9\---9------9\---9\---9-------------1----0----0-|
|------------------------------------------------------2----0-|
|-0----------------------------------------------------3------|
|---------------------------------------------0-----------3---|

(From "I tip my hat to the new constitution...")
Guitar
|---2---5-------2---5-----------2---5-------2---5-----------2---5-------2---5-------|
|-----------------------------------5-----------------------------------------------|
|-----------------------------------------------------------------------------------|
|-----------------------------------------------------------------------------------|
|-0---0-------0---0-----------0---0-------0---0-----------0---0-------0---0---------|
|-----------------------------------------------------------------------------------|
|Bass
|-----------------------------------------------------------------------------------|
|-4-2---------4-2-------------4-2---------4-2-------------4-2---------4-2-----------|
|-----4-2-0-------4-2-4-2-0-------4-2-0-------4-2-4-2-0-------4-2-0-------4-2-0-----|
|-------------------------------------------------------------------------------2-0-|

(From "Pick up my guitar and play...")
|----3---------------------------7---12---------12---------12-----------3---2----3--2----3--5---10-|
|----3----12r10----8--8-----------------15b17------15b17------15b17-----3---3----3--3----3--5---10-|
|---------------9-------9----6/7--------------------------------------------2----0--2----0--6------|
|---------------------------------------------------------------------------0----0--0----0--7------|
|--------------------------------------------------------------------------------------------------|
|-3------------------------------------------------------------------3-----------------------------|

|------3--2--------3-|---------------------2--2------------------------2--2---|
|-2----3--3---2----3-|---------------------3--3------------------------3--3---|
|-2----0--2---2----0-|-2---2-2---2---2---2-2--2----2---2-2---2---2---2-2--2---|
|-2----0--0---2----0-|-2---2-2---2---2---2-0--0----2---2-2---2---2---2-0--0---|
|-0-----------0----2-|-0---0-0---0---0---0---------0---0-0---0---0---0--------|
|------------------3-|---------3-------3-------------------3-------3----------|

|---------------------2--2------------------------2--2---|
|---------------------3--3------------------------3--3---|
|-2---2-2---2---2---2-2--2----2---2-2---2---2---2-2--2---|
|-2---2-2---2---2---2-0--0----2---2-2---2---2---2-0--0---|
|-0---0-0---0---0---0---------0---0-0---0---0---0--------|
|---------3-------3-------------------3-------3----------|

|-5-----5-----5--------------------5-----5-----5--------------------5-----5-----5------------------|
|-5-----5-----5------3-3-3-3-3-3---5-----5-----5------3-3-3-3-3-3---5-----5-----5------3-3-3-3-3-3-|
|---2-----2-----2----2-2-2-2-2-2-----2-----2-----2----2-2-2-2-2-2-----2-----2-----2----2-2-2-2-2-2-|
|--------------------2-2-2-2-2-2----------------------2-2-2-2-2-2----------------------2-2-2-2-2-2-|
|-----0-----0-----0--0-0-0-0-0-0-------0-----0-----0--0-0-0-0-0-0-------0-----0-----0--0-0-0-0-0-0-|
|--------------------------------------------------------------------------------------------------|

|-5-----5---------|
|-5-----5------3--|
|---2-----2----2--|
|--------------2--|
|-----0-----0--0--|
|-----------------|


(From "I move myself and my family aside")
|---------------------------0-------------------------5----------------------------------------|
|-------------2-------------0---------------2-----------------------5-5--4---------------------|
|----4-----/4---4-2---2-----1---------------2----4b6----4-2---------4-4--4--4--4----4--4-------|
|----4--------------4-------2------0h2-2----2-------------------------------4--4----4--4-------|
|-2------------------------------2--------0--------------------2------------2--2----2--2-------|
|------------------------0----------------------------------------------------------------0-0--|

|-------------------------------------------------------------------0---|
|---------x-x-x---------------------x-x-x-------------------x-x-----0---|
|---4--4--x-x-x--4-----------4---4--x-x-x--4---------4---4--x-x--4--1---|
|---4--4--x-x-x--4--2-2------4---4--x-x-x--4--2-2----4---4--x-x--4--2-2-|
|-2----2--x-x-x--2--2-2---0--2---2--x-x-x--2--2-2----2---2--x-x--2--2-2-|
|-------------------0-0-----------------------0-0-------------------0-0-|


Guitar Solo:
|----------------------------7----------7----------7--------------------------------------|
|-7------------------10---10---10-10-10---10-10-10---10-10--10-10--10-10--9-9--9-9--------|
|-7-------11r9p7--------------------------------------------------------------------7b8---|
|----9-----------9----------------------------------------------------------------------9-|
|-----------------------------------------------------------------------------------------|
|-----------------------------------------------------------------------------------------|

|--------------------------------------------------------------------------------------------|
|-10b12---12-12r10--10-10-10--7------7----7----7----7----------------------------------------|
|-------------------11-11-11--8------7b8--7b8--7b8--7b8r7-----------------------7------------|
|--------------------------------9------------------------7-9-------7---7--9----9-7----------|
|---------------------------------------------------------------7h9---9-------------9-7------|
|---------------------------------------------------------------------------------------10-7-|

|----------------------------------------------------------------------------|
|----------------------7----7----7----------------------------7---7----------|
|-----7------7----9----7h8--7h8--7h8--7-6----9-9----9-9-------8---8-7-6----9-|
|-7---7-9----7-9--9-----------------------9-----------------------------9--9-|
|-7h9------9----------------------------------------------7h9---9------------|
|----------------------------------------------------------------------------|

|--------3--2-----------3--2-----------3--2-----------3---2---|
|-2------3--3----2------3--3----2------3--3----2------3---3---|
|-2------0--2----2------0--2----2------0--2----2------0---2---|
|-2------0--0----2------0--0----2------0--0----2------0---0---|
|-0--------------0--------------0--------------0--------------|
|-------------------------------------------------------------|


(From "There's nothing in the streets...")
|----5--5-5-------------------------------------------------0---------2--|
|----5---------------------------------3--------------------0----3-3--3--|
|------------6r4p2---2----------2-2----2-----2---2----------1----0-0--2--|
|------------------4--------------2----------2---2----------2----0-0--0--|
|-0---------------------3b4--0-------0----0--0---0-----------------------|
|---------------------------------------------------3b4--0---------------|

(From "And the parting on the left...")
|------------------------------------------------------------5---0----2-2--3-|
|----------------------------------------------------------------0----3-3--3-|
|----6r4-2---2-2------2-2---2-2-x--2-2-2-------2-2---2---2-------1----2-2--0-|
|----------4-----------------------------------------------------2----0-0--0-|
|-0----------------0------0-----------------0--------------------------------|
|----------------------------------------------------------------------------|

(From "I tip my hat to the new constitution...")
Guitar
|---2---5-------2---5-----------2---5-------2---5-----------2---5-------2---5-------|
|-----------------------------------5-----------------------------------------------|
|-----------------------------------------------------------------------------------|
|-----------------------------------------------------------------------------------|
|-0---0-------0---0-----------0---0-------0---0-----------0---0-------0---0---------|
|-----------------------------------------------------------------------------------|
|Bass
|-----------------------------------------------------------------------------------|
|-4-2---------4-2-------------4-2---------4-2-------------4-2---------4-2-----------|
|-----4-2-0-------4-2-4-2-0-------4-2-0-------4-2-4-2-0-------4-2-0-------4-2-0-----|
|-------------------------------------------------------------------------------2-0-|

(From "Pick up my guitar and play...")
|-12--12----------------------------------------------------------------------------------------|
|--------15-12-----------------------12---------------------------------------------------------|
|--------------14b16-14-12-----------------12b13----11---------11----11b12---12r11-----------11-|
|--------------------------14--12h14-------------14----11-14------14---------------14-----------|
|--------------------------------------------------------------------------------------10h12----|
|-----------------------------------------------------------------------------------------------|

|---------------10--------------------------------------------------------|
|----------10------------------------------------------------3---------3--|
|-11----------------11-12--11-------2----2-2-------2-2-------2----2----0--|
|----12-----------------------------2----2-2-------2-2------------2----0--|
|-------12--------------------------0---------0---------0---------0-------|
|-------------------------------------------------------------------------|

2nd Guitar Solo:
|-5-----5-----5--------------------5-----5-----5--------------------5-----5-----5------------------|
|-5-----5-----5------3-3-3-3-3-3---5-----5-----5------3-3-3-3-3-3---5-----5-----5------------------|
|---2-----2-----2----2-2-2-2-2-2-----2-----2-----2----2-2-2-2-2-2-----2-----2-----2----------------|
|--------------------2-2-2-2-2-2----------------------2-2-2-2-2-2---------------------------2------|
|-----0-----0-----0--0-0-0-0-0-0-------0-----0-----0--0-0-0-0-0-0-------0-----0-----0--2b4---2-2-0-|
|--------------------------------------------------------------------------------------------------|

|-5-----5-----3--2------------------------------------------------------------3-2-3-2--2-|
|-5-----5-----3--3------------------------------------------------------------3-3-3-3--3-|
|---2-----2---0--2------2p0---2p0---2p0---2p0---2p0---2p0---2p0---2p0---2-----2-2-2-2--2-|
|-------------0--0------------------------------------------------------2-----0-0-0-0--0-|
|-----0-----0--------0------0-----0-----0-----0-----0-----0-----0-----0----0-------------|
|----------------------------------------------------------------------------------------|

|-------------------------------------------------------------------------------------------------|
|-17------17-----17-------17--17-17---17----------3-1---3-1---3-1---3-1----3-1---3-1---3-1---3-1--|
|-16b18---16b18--16-16b18-----18-16---16-14-14----2-2---2-2---2-2---2-2----2-2---2-2---2-2---2-2--|
|-------------------------------------------------------------------------------------------------|
|-------------------------------------------------------------------------------------------------|
|-------------------------------------------------------------------------------------------------|

|---------------------------------------------------------------------------------------------|
|-------3---3-------------------3--3-3----17-17-17-17-17-17-17-17-17-17-17-17-17-17-17-17-17^-|
|-2-----0---2----2------2-2-2---2--2-2----17-17-17-17-17-17-17-17-17-17-17-17-17-17-17-17-17^-|
|-2-2---0---0----2------2-2-2---0--0-0--------------------------------------------------------|
|-0---0----------0------0-0-0-----------------------------------------------------------------|
|---------------------------------------------------------------------------------------------|

|----------------------------------------------------|
|--------17-----17-----------------------------------|
|-16b18-----18--18r16-----6r4-2--------2---------2---|
|--------------------------------------2---------2---|
|--------------------------------4-0---0---------0---|
|----------------------------------------------------|


Synthesizer Solo Tab for Guitar:
|-9----9----9----9----9-10-9----9----9----9----9----10----10----10-10-9----9-10-9----9-10-9----|
|---12---12---12---12--------12---12---12---12---12----12----12---------12--------12--------12-|
|----------------------------------------------------------------------------------------------|
|----------------------------------------------------------------------------------------------|
|----------------------------------------------------------------------------------------------|
|----------------------------------------------------------------------------------------------|

|-9-10-9----9-10-9----------------------9-12-10-9----10-9----10-9----10-9----10-9----10-9----|
|--------12--------12-10-10-10-10-10-10-----------12------12------12------12------12------12-|
|--------------------------------------------------------------------------------------------|
|--------------------------------------------------------------------------------------------|
|--------------------------------------------------------------------------------------------|
|--------------------------------------------------------------------------------------------|

|-10-9----10-9----10-9----10-9----9-10-9----------------------------9----9----10-9----|
|------12------12------12------10--------------------------------10---10---10------10-|
|----------------------------------------9-9-10-10-9-9-------9-9----------------------|
|------------------------------------------------------12-12--------------------------|
|-------------------------------------------------------------------------------------|
|-------------------------------------------------------------------------------------|

|----9----9----10-9----------9----------9----------9----9----9----9----9----9-10--10-9----9----|
|-10---10---10------10----10---10----10---10----10---10---10---10---10---10------------10---10-|
|----------------------12---------12---------12------------------------------------------------|
|----------------------------------------------------------------------------------------------|
|----------------------------------------------------------------------------------------------|
|----------------------------------------------------------------------------------------------|

|-9----10----9----9----10-9-9----9----10----9----9----10-9----9----10-9------------------------|
|---10----10---10---10--------10---10----10---10---10------12---10------10---------------------|
|--------------------------------------------------------------------------9-9-------9-9-------|
|------------------------------------------------------------------------------12-12-----12-12-|
|----------------------------------------------------------------------------------------------|
|----------------------------------------------------------------------------------------------|

|----9-10-9-------------------------------9-10-9----------9-10-9-------9-10-10-9----|
|-10-------12-12-10-10-------10-10--10-12--------12-10-10--------10-12-----------12-|
|----------------------12-12--------------------------------------------------------|
|-----------------------------------------------------------------------------------|
|-----------------------------------------------------------------------------------|
|-----------------------------------------------------------------------------------|

|----------------------------------------------9-10-10-10----17-17-17-17-17-17-17-17-|
|-10-10-12----10-10-12----10-10-12----10-10-12------------10-------------------------|
|----------12----------12----------12------------------------------------------------|
|------------------------------------------------------------------------------------|
|------------------------------------------------------------------------------------|
|------------------------------------------------------------------------------------|

|-17-17-17-17-------------17-17-17-17-17-17-17-17-------------17-17-17-17-17-17-17-17-|
|-------------------------------------------------------------------------------------|
|-------------14-14-14-14-------------------------14-14-14-14-------------------------|
|-------------------------------------------------------------------------------------|
|-(Drums_come_in)---------------------------------------------------------------------|
|-------------------------------------------------------------------------------------|

|-------------17-17-17-17-17-15-15-15-14-14-14-14-14-14-14-14-|
|-------------------------------------------------------------|
|-14-14-14-14-------------------------------------------------|
|-------------------------------------------------------------|
|-------------------------------------------------------------|
|-------------------------------------------------------------|
End Of Solo

(From "Yeah!")
|----------3--2-2--------------3--2-2----|
|----------3--3-3--------------3--3-3----|
|-2--------0--2-2-----2--------0--2-2----|
|-2--------0--0-0-----2--------0--0-0----|
|-0-------------------0------------------|
|----------------------------------------|

(From "Meet the new boss, same as the old boss")
|----------3--2-2--------------3--2-2---------------------3-2--------------------3-2--|
|----------3--3-3--------------3--3-3---------------------3-3--------------------3-3--|
|-2--------0--2-2-----2--------0--2-2----2---2-2---2-2----0-2---2---2-2---2-2----0-2--|
|-2--------0--0-0-----2--------0--0-0----2---2-2---2-2----0-0---2---2-2---2-2----0-0--|
|-0-------------------0------------------0---0-0---0-0----------0---0-0---0-0---------|
|------------------------------------------------------3----------------------3-------|

|------------------3-2--------------------3-2--|
|------------------3-3--------------------3-3--|
|-2---2-2---2-2----0-2---2---2-2---2-2----0-2--|
|-2---2-2---2-2----0-0---2---2-2---2-2----0-0--|
|-0---0-0---0-0----------0---0-0---0-0---------|
|---------------3----------------------3-------|


Outro:
|----5-----5-----5-----2--2-------5-----5-----5-----2--2---|
|----5-----5-----5-----3--3-------5-----5-----5-----3--3---|
|----------------------2--2-------------------------2--2---|
|----------------------0--0-------------------------0--0---|
|-0----------------------------0---------------------------|
|------3-5---3-5---3-5--------------3-5---3-5---3-5--------|

|-9---------9-----------------------|
|-10--------10--------2---------x---|
|-9----2----9----2----2---------x---|
|------2---------2----2---------x---|
|------0---------0----0-----------0-|
|-----------------------------------|
Song info
Wont Get Fooled Again
The Who
2001
  • Rock
  • Classic Rock
Alternative tracks
Similar songs
Sea And Sand - The Who
Station To Station - David Bowie
Lifes Been Good - Joe Walsh

Hi! Hope you enjoy backing track experience.
If you want to help us in the development of the project, feel free to donate!