Intro - The xx
00:00 / 00:00
Tabs and lyrics
Tunning: Standard (E A D G B e)
-------------------------------------------------------------------------------
Intro - The xx
-------------------------------------------------------------------------------


[Intro Riff]

e|----------------------------------------------------------------------------|
B|----------------------------------------------------------------------------|
G|----------------------------------------------------------------------------|
D|-7-7--7--7-7--7--7-7--7--7-7--7--10-10--10--10-10--10--10-10--10--10-10--10-|
A|----------------------------------------------------------------------------|
E|----------------------------------------------------------------------------|

e|----------------------------------------------------------------------------|
B|----------------------------------------------------------------------------|
G|-7-7--7--7-7--7--7-7--7--7-7--7--9-9--9--9-9--9--7-7--7---------------------|
D|---------------------------------------------------------10-10--10----------|
A|----------------------------------------------------------------------------|
E|----------------------------------------------------------------------------|
x2


[Alternative Riff]

e|----------------------------------------------------------------------------|
B|----------------------------------------------------------------------------|
G|-------------7-7---------------------7-7------------------------------------|
D|-7-7--10-10------10-10---7-7--10-10-------10-10-----------------------------|
A|----------------------------------------------------------------------------|
E|----------------------------------------------------------------------------|

e|----------------------------------------------------------------------------|
B|----------------------------------------------------------------------------|
G|-------------9-9---------7-7-----------9-9----------------------------------|
D|-7-7--10-10------10-10--------10-10-------10-10-----------------------------|
A|----------------------------------------------------------------------------|
E|----------------------------------------------------------------------------|
x2


Repeat Intro riff


[Intro Riff]

e|----------------------------------------------------------------------------|
B|----------------------------------------------------------------------------|
G|----------------------------------------------------------------------------|
D|-7-7--7--7-7--7--7-7--7--7-7--7--10-10--10--10-10--10--10-10--10--10-10--10-|
A|----------------------------------------------------------------------------|
E|----------------------------------------------------------------------------|

e|----------------------------------------------------------------------------|
B|----------------------------------------------------------------------------|
G|-7-7--7--7-7--7--7-7--7--7-7--7--9-9--9--9-9--9--7-7--7---------------------|
D|---------------------------------------------------------10-10--10----------|
A|----------------------------------------------------------------------------|
E|----------------------------------------------------------------------------|


Repeat Alternative riff


[Alternative Riff]

e|----------------------------------------------------------------------------|
B|----------------------------------------------------------------------------|
G|-------------7-7---------------------7-7------------------------------------|
D|-7-7--10-10------10-10---7-7--10-10-------10-10-----------------------------|
A|----------------------------------------------------------------------------|
E|----------------------------------------------------------------------------|

e|----------------------------------------------------------------------------|
B|----------------------------------------------------------------------------|
G|-------------9-9---------7-7-----------9-9----------------------------------|
D|-7-7--10-10------10-10--------10-10-------10-10-----------------------------|
A|----------------------------------------------------------------------------|
E|----------------------------------------------------------------------------|
x2


[Ends with]

e|----------------------------------------------------------------------------|
B|----------------------------------------------------------------------------|
G|----------2--5---7----9----5--------5-7---12--7-9--5------------------------|
D|-7--------------------------------------------------------------------------|
A|----------------------------------------------------------------------------|
E|----------------------------------------------------------------------------|
Tunning: Standard (E A D G B e)
[Verse]

e|--------------------------------------------|
B|----------------3(x12)-5(x6)-3-3-3----------|
G|-2(x12)-5(x12)---------------------5-5-0-2--|
D|--------------------------------------------|x2
A|--------------------------------------------|
E|--------------------------------------------|

e|----------------------------------|
B|---------3-3-------------3-3------|
G|-2-2-5-5------5-5-2-5-5------5-5--|
D|----------------------------------|
A|----------------------------------|
E|----------------------------------|

e|-----------------------------------|
B|---------5-5-----3-3-----5-5-------|
G|-2-2-5-5-----5-5-----5-5-----5-5-2-|
D|-----------------------------------|
A|-----------------------------------|
E|-----------------------------------|

Repeat all one more time


[Outro]

e|-----------------------------------|
B|-----------------------------------|
G|-2---2/5--7-9-5---5/7--12--7/9--5--|
D|-----------------------------------|
A|-----------------------------------|
E|-----------------------------------|



************************************

| / Slide up

************************************
Tunning: Standard (E A D G B e)
Behold my first tab! I chose "Intro" because it sounded like a relatively easy
song to test my transcribing skills.

Here's how the tab goes: eBG strings cover the guitar part and DAE cover the bass violin part.

C&C are very welcome.

Artist: The XX
Song: Intro

[00:00-00:24] Intro:
e|--------------------------------------------------------------------------|
B|-----------------------------------------33-333-333-333-355-555-533-3-----|
G|-22-222-222-222-222-222-255-555-555-555-5----------------------------55-0-|
D|--------------------------------------------------------------------------|
A|------------------------(0)---------------------------(3-0)---------------|
E|--------(1)-----------------------------(1)-------------------------------|


[00:24-00:42]
e|-------------------------------------------------------------------|
B|----------------------------------33-333-333-333-355-555-533-3-----|
G|--22-222-222-222-255-555-555-555-5----------------------------55-0-|
D|----------------------------------------------(2-0)----------------|
A|---------------(3-0)------------(3)--------------(0)---------------|
E|-(1)------------------------------(1)------------------------------|


[00:42-00:52]
e|---------------------------------------|
B|-------33------33--------55--33--55----|
G|--22/55--55\255--55\22/55--55--55--55\-|
D|---------------------------------------|
A|-----------------(3-0)--------------(3)|
E|-(1)-----------------------------------|


[00:52-01:02]
e|-----------------------------------|
B|-----33-------33-------55--33--55--|
G|-\255--55\2/55--55\2255--55--55--5-|
D|---------------(2-0)---------------|
A|------------------(0)--------------|
E|-(1)-------------------------------|


[01:02-01:21]
e|------------------------------------------------------------------|
B|---------------------------------33-333-333-333-355-555-533-3-----|
G|-22-222-222-222-255-555-555-555-5----------------------------55-0-|
D|---------------------------------------------(2-0)----------------|
A|----------------(0)-----------(3)---------------(0)---------------|
E|-(1)----------------------------(1)-------------------------------|


parts [00:42-00:52] & [00:52-01:02] are repeated with vocals


[01:40-02:07] Outro:
e|----------------------------------------3-----------|
B|----------------3---5------------------------3/5----|
G|--2-----2/5------------5------5/7-----------------5-|
D|----------------------------(2-0)-------------------|
A|-------(3-0)---------(3)-------(0)-------------(3)--|
E|-(1)------------------(1)------------------------(1)|
Tunning: Standard (E A D G B e)
Intro by The XX
Tabbed By: D
Tuning: Std.

|-----------------------------------------|
|---------------3(x12)-5(x6)-3-3-3--------|
|-2(x18)-5(x12)--------------------5-5-2--|
|-----------------------------------------|
|-----------------------------------------|
|-----------------------------------------|

|-----------------------------------------|
|---------------3(x12)-5(x6)-3-3-3--------|
|-2(x12)-5(x12)--------------------5-5-2--|
|-----------------------------------------|
|-----------------------------------------|
|-----------------------------------------|

|---------------------------------|
|---------3-3------------3-3------|
|-2-2-5-5-----5-5--2-5-5-----5-5--|
|---------------------------------|
|---------------------------------|
|---------------------------------|

|------------------------------------|
|---------5-5-----3-3-----5-5--------|
|-2-2-5-5-----5-5-----5-5-----5-5\2--|
|------------------------------------|
|------------------------------------|
|------------------------------------|

|-----------------------------|
|-----3-3------------3-3------|
|-5-5-----5-5--2-5-5-----5-5--|
|-----------------------------|
|-----------------------------|
|-----------------------------|

|----------------------------------|
|---------5-5-----3-3-----5-5------|
|-2-2-5-5-----5-5-----5-5-----5-5--|
|----------------------------------|
|----------------------------------|
|----------------------------------|

|-----------------------------------------|
|---------------3(x12)-5(x6)-3-3-3--------|
|-2(x12)-5(x12)--------------------5-5-2--|
|-----------------------------------------|
|-----------------------------------------|
|-----------------------------------------|

|---------------------------------|
|---------3-3------------3-3------|
|-2-2-5-5-----5-5--2-5-5-----5-5--|
|---------------------------------|
|---------------------------------|
|---------------------------------|

|----------------------------------|
|---------5-5-----3-3-----5-5------|
|-2-2-5-5-----5-5-----5-5-----5-5--|
|----------------------------------|
|----------------------------------|
|----------------------------------|

|-------------------------------|
|-------3-3------------3-3------|
|-2-5-5-----5-5--2-5-5-----5-5--|
|-------------------------------|
|-------------------------------|
|-------------------------------|

|---------------------------------|
|---------5-5-----3-3-----5-5-----|
|-2-2-5-5-----5-5-----5-5-----5-5-|
|---------------------------------|
|---------------------------------|
|---------------------------------|

|------------------------------------|
|------------------------------------|
|-2---2/5--7-9-5----5/7-12-7/9-5-----|
|------------------------------------|
|------------------------------------|
|------------------------------------|
Song info
Intro
The xx
2001
  • Pop
  • Rock
  • Indie Rock
Alternative tracks
Similar songs
It Means Nothing - Stereophonics
Twisterella - Ride
Sheena Is A Parasite - The Horrors
Paradise - Coldplay
Flame - Bell X1

Hi! Hope you enjoy backing track experience.
If you want to help us in the development of the project, feel free to donate!