Waiting For An Alibi - Thin Lizzy
00:00 / 00:00
Tabs and lyrics
Tunning: Standard (E A D G B e)
got this from mxtabs.net

Gtr I (E A D G B E) - 'Untitled'
Gtr II (E A D G B E) - 'Untitled'
Gtr III (E A D G B E) - 'Untitled'

Intro

Gtr I
~~
|---------|--------12p11-|-----------|-----------------------|
|---------|--------------|-14--------|-(14)---14-14-14-14h16-|
|---------|--------------|-----------|-----------------------|
|---------|--------------|-----------|-----------------------|
|---------|--------------|-----------|-----------------------|
|---------|--------------|-----------|-----------------------|
|
| Gtr II
| ~~
|---------|--------------|-----------|-----------------------|
|---------|---------9p=7-|-----------|-----------------------|
|---------|--------------|--9--------|--(9)----9--9--9--9h11-|
|---------|--------------|-----------|-----------------------|
|---------|--------------|-----------|-----------------------|
|---------|--------------|-----------|-----------------------|


~~
|--------------------|-----------------16p14-|-------|
|-14---14s12-(12)----|-(12)----(12)\---------|-17----|
|--------------------|-----------------------|-------|
|--------------------|-----------------------|-------|
|--------------------|-----------------------|-------|
|--------------------|-----------------------|-------|
|
| ~~
|--------------------|-----------------------|-------|
|--------------------|-----------------14p12-|-------|
|--9----9s=8--(8)----|--(8)-----(8)----------|-13----|
|--------------------|-----------------------|-------|
|--------------------|-----------------------|-------|
|--------------------|-----------------------|-------|


~~ ~~~~
|--------------------14-|--------------------|------------------||
|-(17)---17-17-17-17----|-17---16-(16)-------|------------------||
|-----------------------|----------------16--|-(16)------(16)\--||
|-----------------------|--------------------|------------------||
|-----------------------|--------------------|------------------||
|-----------------------|--------------------|------------------||
|
| ~~ ~~~~
|-----------------------|--------------------|------------------||
|--------------------12-|--------------------|------------------||
|-(13)---13-13-13-13----|-13---11-(11)\---8--|--(8)-------(8)\--||
|-----------------------|--------------------|------------------||
|-----------------------|--------------------|------------------||
|-----------------------|--------------------|------------------||


Verse
C#5 E5 G#m B5 C#5 E5 C#5 G#5
Gtr I
|---------------|-4-------------|---------------|----------------|
|---------------|-4-------------|---------------|----------------|
|-6---9-x-x-x-x-|-4---4-x-x-x-x-|-6---9-x-x-x-x-|-6--------------|
|-6---9-x-x-x-x-|-6---4-x-x-x-x-|-6---9-x-x-x-x-|-6---6-x-x-x-x--|
|-4---7-x-x-x-x-|-6---2-x-x-x-x-|-4---7-x-x-x-x-|-4---6-x-x-x-x--|
|-----0-x-x-x-x-|-4-------------|-----0-x-x-x-x-|-----4-x-x-x-x--|


C#5 E5 G#m B5 C#5 E5 G#5 C#5
|-----------|-4-------------|---------------|-4----4-(4)-------|
|-----------|-4-------------|---------------|-4----4-(4)-------|
|-6---9-----|-4---4-x-x-x-x-|-6---9-x-x-x---|-x----x-(4)---6-6-|
|-6---9-----|-6---4-x-x-x-x-|-6---9-x-x-x---|-6--x-6-(6)---6-6-|
|-4---7-----|-6---2-x-x-x-x-|-4---7-x-x-x---|-6--x-6-(6)---4-4-|
|-----0-----|-4-------------|-----0-x-x-x-4-|-4--x-4-(4)-------|


C#5C#m G#5 C#5
|----4--4-4-----|-------4--(4)--4-4-----|
|----5--5-5-----|-------4--(4)--4-4-----|
|-6--6--6-6-----|-------------------6-6-|
|-6--6--6-6-x-6-|-(6)-6-------------6-6-|
|-4--4--4-4-x-6-|-(6)-6-------------4-4-|
|-----------x-4-|-(4)-4-----------------|


C#m F#5
|----4--4-4-----|-------2-x-x-2-x-x-2-2-2-|
|----5--5-5-----|-------2-x-x-2-x-x-2-2-2-|
|-6--6--6-6-----|---------x-x---x-x-------|
|-6--6--6-6-x-4-|-(4)-4-------------------|
|-4--4--4-4-x-4-|-(4)-4-------------------|
|-----------x-2-|-(2)-2-------------------|


C#5C#m G#m A5 A5 B E5
|----4--4-4-----|-------4--4-4-4-----|----5--5--5---|------------------------|
|----5--5-5-----|-------4--4-4-4-----|----5--5--5-4-|-(4)-4-(4)--(4)--4------|
|-6--6--6-6---4-|-(4)------------2-2-|-2--2--2--2-4-|-(4)-4-(4)--(4)--4-9-9--|
|-6--6--6-6-x-6-|-(6)-6----------2-2-|-2----------4-|-(4)-4-(4)--(4)--4-9-9--|
|-4--4--4-4-x-6-|-(6)-6----------0-0-|-0----------2-|-(2)-2-(2)--(2)--2-7-7--|
|-----------x-4-|-(4)-4--------------|--------------|------------------------|


Chorus
E5 G#5 A5 B5 E5
PM------|
|-----------------|-------------------|-------4--(4)--(4)--|-5---------------|
|-----------------|-------------------|-------4--(4)--(4)--|-5---------------|
|-9-9-9-9-9-9-9-9-|-(9)-9-9-9-9-9-9---|--------------------|-2---4-(4)---9-9-|
|-9-9-9-9-9-9-9-9-|-(9)-9-9-9-9-9-9-6-|-(6)-6--------------|-2---4-(4)---9-9-|
|-7-7-7-7-7-7-7-7-|-(7)-7-7-7-7-7-7-6-|-(6)-6--------------|-0---2-(2)---7-7-|
|-----------------|-----------------4-|-(4)-4--------------|-----------------|


E5 G#5 A5 B5
PM------|
|-----------------|-------------------|-------4--(4)--(4)--|-5-----------12p11-|
|-----------------|-------------------|-------4--(4)--(4)--|-5-----------------|
|-9-9-9-9-9-9-9-9-|-(9)-9-9-9-9-9-9---|--------------------|-2---4-(4)---------|
|-9-9-9-9-9-9-9-9-|-(9)-9-9-9-9-9-9-6-|-(6)-6--------------|-2---4-(4)---------|
|-7-7-7-7-7-7-7-7-|-(7)-7-7-7-7-7-7-6-|-(6)-6--------------|-0---2-(2)---------|
|-----------------|-----------------4-|-(4)-4--------------|-------------------|


Bridge
~~
|-----------|-----------------------|
|-14--------|-(14)---14-14-14-14h16-|
|-----------|-----------------------|
|-----------|-----------------------|
|-----------|-----------------------|
|-----------|-----------------------|
|
| Gtr II
| ~~
|-----------|-----------------------|
|-----------|-----------------------|
|--9--------|--(9)----9--9--9--9h11-|
|-----------|-----------------------|
|-----------|-----------------------|
|-----------|-----------------------|


|--------------------|-----------------16p14--|
|-14---14s12-(12)----|-(12)----(12)\----------|
|--------------------|------------------------|
|--------------------|------------------------|
|--------------------|------------------------|
|--------------------|------------------------|
|
|--------------------|------------------------|
|--------------------|-----------------14p12--|
|--9----9s=8--(8)----|--(8)-----(8)-----------|
|--------------------|------------------------|
|--------------------|------------------------|
|--------------------|------------------------|


~~ ~~ ~~~~
|-----------|--------------------14-|--------------------|-------------------||
|-17--------|-(17)---17-17-17-17----|-17---16-(16)-------|-------------------||
|-----------|-----------------------|----------------16--|-(16)------(16)\---||
|-----------|-----------------------|--------------------|-------------------||
|-----------|-----------------------|--------------------|-------------------||
|-----------|-----------------------|--------------------|-------------------||
|
| ~~ ~~ ~~~~
|-----------|-----------------------|--------------------|-------------------||
|-----------|--------------------12-|--------------------|-------------------||
|-13--------|-(13)---13-13-13-13----|-13---11-(11)\---8--|--(8)-------(8)\---||
|-----------|-----------------------|--------------------|-------------------||
|-----------|-----------------------|--------------------|-------------------||
|-----------|-----------------------|--------------------|-------------------||


Verse
C#5 E5 G#m B5 C#5 E5 G#5
Gtr I
|---------------|-4-------------|---------------|---------------------------|
|---------------|-4-------------|---------------|-------12p9----9-----------|
|-6---9-x-x-x-x-|-4---4-x-x-x-x-|-6---9-x-x-x-x-|------------11---9b9.5-----|
|-6---9-x-x-x-x-|-6---4-x-x-x-x-|-6---9-x-x-x-x-|-6---6-----------------11--|
|-4---7-x-x-x-x-|-6---2-x-x-x-x-|-4---7-x-x-x-x-|-6---6---------------------|
|-----0-x-x-x-x-|-4-------------|-----0-x-x-x-x-|-4---4---------------------|


C#5C#m G#5 C#5 C#m F#5
|----4--4-4----|-------4--4-4-4-4-----|----4--4-4----|-------2-x-x-2-x-x-2-2-2-|
|----5--5-5----|-------4--4-4-4-4-----|----5--5-5----|-------2-x-x-2-x-x-2-2-2-|
|-6--6--6-6----|------------------6-6-|-6--6--6-6----|---------x-x---x-x-------|
|-6--6--6-6--6-|-(6)-6------------6-6-|-6--6--6-6--4-|-(4)-4-------------------|
|-4--4--4-4--6-|-(6)-6------------4-4-|-4--4--4-4--4-|-(4)-4-------------------|
|------------4-|-(4)-4----------------|------------2-|-(2)-2-------------------|


C#5C#m G#5 A5 A5 A5B5 E5
|----4--4-4-----|-------4--4-------|----5--5------|----------------------|
|----5--5-5-----|-------4--4-------|----5--5------|----------------------|
|-6--6--6-6-----|--------------2-2-|-2--2--2--2-4-|-(4)-4-4-4-4-4-4-9-9--|
|-6--6--6-6---6-|-(6)-6--------2-2-|-2--------2-4-|-(4)-4-4-4-4-4-4-9-9--|
|-4--4--4-4---6-|-(6)-6--------0-0-|-0--------0-2-|-(2)-2-2-2-2-2-2-7-7--|
|-----------4-4-|-(4)-4------------|--------------|----------------------|


Chorus
E5 G#5
PM------|
|-----------------|-------------------|
|-----------------|-------------------|
|-9-9-9-9-9-9-9-9-|-(9)-9-9-9-9-9-9---|
|-9-9-9-9-9-9-9-9-|-(9)-9-9-9-9-9-9-6-|
|-7-7-7-7-7-7-7-7-|-(7)-7-7-7-7-7-7-6-|
|-----------------|-----------------4-|


A5 B5 E5
|-------4--(4)-4-4--|-5---------------------|
|-------4--(4)-4-4--|-5---------------------|
|-------------------|-2-x-x-x-4-(4)--4-9-9--|
|-(6)-6-------------|-2-x-x-x-4-(4)--4-9-9--|
|-(6)-6-------------|-0-x-x-x-2-(2)--2-7-7--|
|-(4)-4-------------|-----------------------|


E5 G#5
PM------|
|-----------------|-------------------|
|-----------------|-------------------|
|-9-9-9-9-9-9-9-9-|-(9)-9-9-9-9-9-9---|
|-9-9-9-9-9-9-9-9-|-(9)-9-9-9-9-9-9-6-|
|-7-7-7-7-7-7-7-7-|-(7)-7-7-7-7-7-7-6-|
|-----------------|-----------------4-|


A5 B5
|-------4--(4)-(4)-4---|-5----------------||
|-------4--(4)-(4)-4---|-5----------------||
|----------------------|-2---4-(4)-4-4----||
|-(6)-6----------------|-2---4-(4)-4-4-2--||
|-(6)-6--------------2-|-0---2-(2)-2-2----||
|-(4)-4----------------|------------------||


Solo
C#5 E5 G#5 B5
~
|------------------------|---------------------------------------|
|------------------------|---------------------------------------|
|----------------------9-|-(9)----9-11b13==(11)--11b13r(11)p9----|
|---------9-(9)-9-9h11---|-----11-----------------------------11-|
|--7-9s11----------------|---------------------------------------|
|------------------------|---------------------------------------|


C#m E5 G#5
~
|-------------------9------------|-9------------9------------9------------9----|
|-----------------9---12p9-------|---12p9---------12p9---------12p9-------9----|
|-9--9-11b13-(11)----------11b13-|--------11b13--------11b13--------11b13------|
|--------------------------------|---------------------------------------------|
|--------------------------------|---------------------------------------------|
|--------------------------------|---------------------------------------------|


C#5 E5
|--12-12p11p9----9----------------------|
|-------------12---12-10-9h10p9---------|
|-------------------------------11p9----|
|------------------------------------11-|
|---------------------------------------|
|---------------------------------------|


G#5 B5 C#5 E5
~ ~~~~~~~~~~~~~
|---------------------------------|--19b21====(19)-19-17-16-|
|---------------------------------|-------------------------|
|-11p9----9-11p9-11b13-(11)-11-9--|-------------------------|
|------11-------------------------|-------------------------|
|---------------------------------|-------------------------|
|---------------------------------|-------------------------|


G#5
~~
|--------------------------------12p9-|
|-19b21-19b21--19b21==19pb21r17-------|
|-------------------------------------|
|-------------------------------------|
|-------------------------------------|
|-------------------------------------|


C#5 G#5
~~~~~~~
|-12p9-12p9-------------------------------|------------------12p9-|
|-----------12p9-12p9---------------------|-----------------------|
|---------------------11p9-11p9-----------|-----------------------|
|-------------------------------11p9-11p9-|------9----------------|
|-----------------------------------------|-/11----11-(11)--------|
|-----------------------------------------|-----------------------|


C#5 F#5
~~~~~~~~~~~
|-12p9-12p9-------------------------------|----------------------12p=9-|
|-----------12p9-12p9---------------------|-12b14--12b14--(12)---------|
|---------------------11p9-11p9-----------|----------------------------|
|-------------------------------11p9-11p9-|----------------------------|
|-----------------------------------------|----------------------------|
|-----------------------------------------|----------------------------|
|
| Gtr II
| ~~~~~~~~~~~
|-----------------------------------------|----------------------16p12-|
|-----------------------------------------|-16b17--16b17--(16)---------|
|-----------------------------------------|----------------------------|
|-----------------------------------------|----------------------------|
|-----------------------------------------|----------------------------|
|-----------------------------------------|----------------------------|


G#5
|-12p=9-12p=9---------------------------------|
|-------------12p9-12p9-----------------------|
|-----------------------11p9-11p9-------------|
|---------------------------------11p9-11p9---|
|---------------------------------------------|
|---------------------------------------------|
|
|-16p12-16p12-12p9-12p9-----------------------|
|---------------------------------------------|
|-----------------------12p9-12p9-------------|
|---------------------------------11p9-11p9---|
|---------------------------------------------|
|---------------------------------------------|


|-----------------------------------------|
|-------------------------------12p9-12p9-|
|---------------------11p9-11p9-----------|
|-----------11p9-11p9---------------------|
|-11p9-11p9-------------------------------|
|-----------------------------------------|
|
|-------------------------------12p9-12p9-|
|---------------------12p9-12p9-----------|
|-----------11p9-11p9---------------------|
|-11p9-11p9-------------------------------|
|-----------------------------------------|
|-----------------------------------------|


A5 B5
~~~~~~~~~~~~~~~~~~~~
|-12p=9-12p=9-14p12-14p12-16p14-16p14-17p16-17p16-|-17b19--17b19===(17)--(17)r\--|
|-------------------------------------------------|------------------------------|
|-------------------------------------------------|------------------------------|
|-------------------------------------------------|------------------------------|
|-------------------------------------------------|------------------------------|
|-------------------------------------------------|------------------------------|
|
| ~~~~~~~~~~~~~~~~~~~~
|-16p12-16p12-17p16-17p16-19p16-19p16-21p19-21p19-|-21b23--21b23===(21)--(21)r\--|
|-------------------------------------------------|------------------------------|
|-------------------------------------------------|------------------------------|
|-------------------------------------------------|------------------------------|
|-------------------------------------------------|------------------------------|
|-------------------------------------------------|------------------------------|


Chorus
E5 G#5
Gtr I
PM----| ~~~~~~~~
|----------------------|----------9----------------------|-------------|
|----------------------|-------12---12-------------------|-------------|
|-9-9-9-9-9-9-9-11b13==|=(11)r---------11pb13r9-11-11b13r|=(11)b13=====|
|-9-9-9-9-9-9-9--------|---------------------------------|-------------|
|-7-7-7-7-7-7-7--------|---------------------------------|-------------|
|----------------------|---------------------------------|-------------|


B5 E5 G#5
|-----------------|-----------------|-------------------|
|-----------------|-----------------|-------------------|
|-9\---4-(4)-4-4--|-9-9-9-9-9-9-9-9-|-(9)-9-9-9-9-9-9---|
|------4-(4)-4-4--|-9-9-9-9-9-9-9-9-|-(9)-7-7-7-7-7-7-6-|
|------2-(2)-2-2--|-7-7-7-7-7-7-7-7-|-(7)-7-7-7-7-7-7-6-|
|-----------------|-----------------|-----------------4-|


A5 B5
|-------4--(4)--(4)---|-5--------------|
|-------4--(4)--(4)---|-5--------------|
|---------------------|-2--x-4-(4)--4--|
|-(6)-6---------------|-2--x-4-(4)--4--|
|-(6)-6---------------|-0--x-2-(2)--2--|
|-(4)-4-------------4-|----------------|
|
| Gtr II
|---------------------|----------------|
|---------------------|----------------|
|---------------------|----------------|
|---------------------|----------------|
|---------------------|----------------|
|---------------------|----------------|


E5 G#5
PM----| ~~~~~~
|----------------------|----------------------------------|
|----------------------|-------12-12-------12-12----------|
|-9-9-9-9-9-9-9-11b13==|=(11)r-------11b13-------11b13====|
|-9-9-9-9-9-9-9--------|----------------------------------|
|-7-7-7-7-7-7-7--------|----------------------------------|
|----------------------|----------------------------------|
|
| ~~~~~~
|----------------------|-------19-19-------19-19----------|
|---------------19b21==|=(19)r-------19b21-------19b21====|
|----------------------|----------------------------------|
|----------------------|----------------------------------|
|----------------------|----------------------------------|
|----------------------|----------------------------------|


A5 B5 E5
~~~~~ PM----|
|------------------|------------------|----------------------|
|------------------|------------------|----------------------|
|-(11)r=====(11)\--|-2---4-(4)--4-9-9-|-9-9-9-9-9-9-9-11b13==|
|------------------|-2---4-(4)--4-9-9-|-9-9-9-9-9-9-9--------|
|------------------|-0---2-(2)--2-7-7-|-7-7-7-7-7-7-7--------|
|------------------|------------------|----------------------|
|
| ~~~~~
|------------------|------------------|----------------------|
|-(19)r=====(19)\--|------------------|---------------19b21==|
|------------------|------------------|----------------------|
|------------------|------------------|----------------------|
|------------------|------------------|----------------------|
|------------------|------------------|----------------------|


G#5
|---------------------------------|------------------|
|-------12-12-------12-12---------|------------------|
|-(11)r-------11b13-------11b13===|=(11)r=====(11)\--|
|---------------------------------|------------------|
|---------------------------------|------------------|
|---------------------------------|------------------|
|
|-------19-19-------19-19---------|------------------|
|-(19)r-------19b21-------19b21===|=(19)r=====(19)\--|
|---------------------------------|------------------|
|---------------------------------|------------------|
|---------------------------------|------------------|
|---------------------------------|------------------|


Guitar solo/outro
A5 B5 E5
~~~
|-5-----------------|---------------------------------|
|-5-----------------|-------12-14-(14)-12h14p12-------|
|-2---4-(4)---13-13-|-13-14---------------------14-13-|
|-2---4-(4)---------|---------------------------------|
|-0---2-(2)---------|---------------------------------|
|-------------------|---------------------------------|
|
| ~~~
|-------------------|---------------------------------|
|-------------------|--------9-10-(10)--9h10p=9-------|
|--------------9--9-|--9-11---------------------11--9-|
|-------------------|---------------------------------|
|-------------------|---------------------------------|
|-------------------|---------------------------------|


~~~~~~ ~~
|------------------------------------|
|---------12-14-(14)-12h14p12--------|
|-(13)-14---------------------14-13--|
|------------------------------------|
|------------------------------------|
|------------------------------------|
|
|~~~~~~ ~~
|------------------------------------|
|----------9-10-(10)--9h10p=9--------|
|--(9)-11---------------------11--9--|
|------------------------------------|
|------------------------------------|
|------------------------------------|


A5 B5
~~ ~~
|------------12-(12)----------|--------------------------------|
|---------12---------14-12-14-|-(14)-12------------------------|
|-(13)-14---------------------|---------14-13-(13)-11----13-13-|
|-----------------------------|-----------------------14-------|
|-----------------------------|--------------------------------|
|-----------------------------|--------------------------------|
|
| ~~
|-----------------------------|--------------------------------|
|----------9-12-(12)-10--9-10-|-(10)--9------------------------|
|--(9)-11---------------------|---------11--9--(9)--------9--9-|
|-----------------------------|--------------------11--9-------|
|-----------------------------|--------------------------------|
|-----------------------------|--------------------------------|


E5 G#5
~~~~~~~~~ ~~
|---------------------------------|-----------------------------------|
|-------12-14-(14)-12h14p12-------|---------12-14-(14)-12h14p12-------|
|-13-14---------------------14-13-|-(13)-14---------------------14-13-|
|---------------------------------|-----------------------------------|
|---------------------------------|-----------------------------------|
|---------------------------------|-----------------------------------|
|
| ~~~~~~~~~ ~~
|---------------------------------|-----------------------------------|
|--------9-10-(10)--9h10p=9-------|----------9-10-(10)--9h10p=9-------|
|--9-11---------------------11--9-|--(9)-11---------------------11--9-|
|---------------------------------|-----------------------------------|
|---------------------------------|-----------------------------------|
|---------------------------------|-----------------------------------|


A5 B5
~~ ~~
|----------12-(12)----------|--------------------------------|
|-------12---------14-12-14-|-(14)-12------------------12-12-|
|-13-14---------------------|---------14-13-(13)-11----------|
|---------------------------|-----------------------14-------|
|---------------------------|--------------------------------|
|---------------------------|--------------------------------|
|
| ~~
|---------------------------|--------------------------------|
|--------9-12-(12)-10--9-10-|-(10)--9------------------------|
|--9-11---------------------|---------11--9--(9)-------13-13-|
|---------------------------|--------------------11--9-------|
|---------------------------|--------------------------------|
|---------------------------|--------------------------------|


E5
~~~~~~~ ~~~~~~~~~ ~~~~~~~ ~~
|-------12-14-(14)-12-------|---------12-14-(14)-12-------|
|-12h14---------------14-12-|-(12)-14---------------14-12-|
|---------------------------|-----------------------------|
|---------------------------|-----------------------------|
|---------------------------|-----------------------------|
|---------------------------|-----------------------------|
|
| ~~~~~~~ ~~~~~~~~~ ~~~~~~~ ~~
|---------------------------|-----------------------------|
|-------12-14-(14)-12-------|---------12-14-(14)-12-------|
|-13-14---------------14-13-|-(13)-14---------------14-13-|
|---------------------------|-----------------------------|
|---------------------------|-----------------------------|
|---------------------------|-----------------------------|


A5 B5
~~ ~~
|---------12-14b16==(14)r=(14)p12-14-|-(14)-12------------------------|
|-(12)-14----------------------------|---------14-12-(12)-------12-12-|
|------------------------------------|--------------------14-13-------|
|------------------------------------|--------------------------------|
|------------------------------------|--------------------------------|
|------------------------------------|--------------------------------|
|
| ~~~~~~~~~
|------------------------------------|--------------------------------|
|---------12-15b17==(15)r--14--12-14-|-(14)-12------------------------|
|-(13)-14----------------------------|---------14-13-(13)-11----13-13-|
|------------------------------------|-----------------------14-------|
|------------------------------------|--------------------------------|
|------------------------------------|--------------------------------|
|
| Gtr III
|------------------------------------|--------------------------------|
|------------------------------------|--------------------------17-17-|
|------------------------------------|--------------------------------|
|------------------------------------|--------------------------------|
|------------------------------------|--------------------------------|
|------------------------------------|--------------------------------|


E5 G#5
~~ ~~
|-------12-14-(14)-12-------|---------12-14-(14)-12-------|
|-12-14---------------14-12-|--12--14---------------14-12-|
|---------------------------|-----------------------------|
|---------------------------|-----------------------------|
|---------------------------|-----------------------------|
|---------------------------|-----------------------------|
|
| ~~~~~~~ ~~~~~~~~~ ~~ ~~
|---------------------------|-----------------------------|
|-------12-14-(14)-12-------|---------12-14-(14)-12-------|
|-13-14---------------14-13-|-(13)-14---------------14-13-|
|---------------------------|-----------------------------|
|---------------------------|-----------------------------|
|---------------------------|-----------------------------|
|
| ~~~~~~~ ~~~~~~~~~ ~~ ~~
|----14-16h17-(17)-16-14----|------14-16h17-(17)-16-14----|
|-17---------------------17-|-(17)---------------------17-|
|---------------------------|-----------------------------|
|---------------------------|-----------------------------|
|---------------------------|-----------------------------|
|---------------------------|-----------------------------|


~~
|---------12-14b16==(14)r(14)p12-14-|
|--12--14---------------------------|
|-----------------------------------|
|-----------------------------------|
|-----------------------------------|
|-----------------------------------|
|
| ~~
|-----------------------------------|
|---------12-15b17==(15)r-14--12-14-|
|--13--14---------------------------|
|-----------------------------------|
|-----------------------------------|
|-----------------------------------|
|
| ~~~~ ~~
|------14-16-17b19==(17)r(17)-16h17-|
|-(17)------------------------------|
|-----------------------------------|
|-----------------------------------|
|-----------------------------------|
|-----------------------------------|


A5 B5 C#5 E5 G#5 B5
~~ ~~
|-(14)-12------------------12p11-|-----------|----------------------|
|---------14-12-(12)-------------|-14--------|-14----14-14-14-14-14-|
|--------------------14-13-------|-----------|----------------------|
|--------------------------------|-----------|----------------------|
|--------------------------------|-----------|----------------------|
|--------------------------------|-----------|----------------------|
|
| ~~ ~~
|--------------------------------|-----------|----------------------|
|-(14)-12-------------------9p=7-|-----------|----------------------|
|---------14-13-(13)-11--9-------|--9--------|-(9)----9--9--9--9--9-|
|--------------------------------|-----------|----------------------|
|--------------------------------|-----------|----------------------|
|--------------------------------|-----------|----------------------|
|
| ~~
|-(17)-16p14---------------------|-----------|----------------------|
|------------17-(17)-14----------|-----------|----------------------|
|-----------------------16-------|-----------|----------------------|
|--------------------------------|-----------|----------------------|
|--------------------------------|-----------|----------------------|
|--------------------------------|-----------|----------------------|


C#5 E5 G#5 B5
|-----------------------------------|-------------16p14-|
|-14------12tr14----------(12tr14)--|-14----12\---------|
|-----------------------------------|-------------------|
|-----------------------------------|-------------------|
|-----------------------------------|-------------------|
|-----------------------------------|-------------------|
|
|-----------------------------------|-------------------|
|-----------------------------------|-------------14p12-|
|--9-8tr9----------(8tr9)-----------|--9-----8\---------|
|-----------------------------------|-------------------|
|-----------------------------------|-------------------|
|-----------------------------------|-------------------|


H.=H
C#5 E5 G#5 B5 C#5 B5 G#5 F#5 E5
~~ ~~~~~
|-----------|--------------------14-|-----------------|----------*|
|-17--------|-(17)---17-17-17-17----|-17--16--14--12--|-12-------*|
|-----------|-----------------------|-----------------|-11b13----*|
|-----------|-----------------------|-----------------|----------*|
|-----------|-----------------------|-----------------|----------*|
|-----------|-----------------------|-----------------|----------*|
|
| ~~ ~~~~~
|-----------|-----------------------|-----------------|----------*|
|-----------|--------------------12-|-----------------|----------*|
|-13--------|-(13)---13-13-13-13----|-13--11---9---8--|--9-------*|
|-----------|-----------------------|-----------------|----------*|
|-----------|-----------------------|-----------------|----------*|
|-----------|-----------------------|-----------------|----------*|


Tablature Legend
----------------
h - hammer-on
p - pull-off
b - bend
pb - pre-bend
r - bend release (if no number after the r, then release immediately)
/\ - slide into or out of (from/to "nowhere")
s - legato slide
S - shift slide
- natural harmonic
[n] - artificial harmonic
n(n) - tapped harmonic
~ - vibrato
tr - trill
T - tap
TP - trem. picking
PM - palm muting
\n/ - tremolo bar dip; n = amount to dip
\n - tremolo bar down
n/ - tremolo bar up
/n\ - tremolo bar inverted dip
= - hold bend; also acts as connecting device for hammers/pulls
- volume swell (louder/softer)
x - on rhythm slash represents muted slash
o - on rhythm slash represents single note slash

Misc Legend
-----------
| - bar
|| - double bar
||o - repeat start
o|| - repeat end
*| - double bar (ending)
: - bar (freetime)
Song info
Waiting For An Alibi
Thin Lizzy
2001
  • Rock
  • Classic Rock
Alternative tracks
Similar songs
Sultans Of Swing - Dire Straits
Shine - Collective Soul
Starman - David Bowie
Banshee - Thin Lizzy
The Crunge - Led Zeppelin

Hi! Hope you enjoy backing track experience.
If you want to help us in the development of the project, feel free to donate!