Never Too Late - Three Days Grace
00:00 / 00:00
Tabs and lyrics
Tunning: Standard (E A D G B e)
Artist : Three Days Grace
Album : One-X
Song : Never Too Late
Tuning : Drop D



[Intro]

Moderately Q=147
(Bbsus2) (Dm)
4/4
Gtr I
Q E E +E E Q +E E E +E E +E E E
SUBSTITUE THIS
e|-------------------|-------------------------|
B|-------------------|-------------------------|
G|-------------------|-------------------------|
D|-------10----------|-----10--8--7--0---------| <---CORRECT WAY!
A|----8------8-------|--0~~--------------------| JUST SUBSTITUTE IT
E|-8------------0~~~-|-------------------------| THROUGHOUT


(Bbsus2) (Dm)
Q E E +E E Q +E E E +E E +E E E
e|-------------------|-------------------------|
B|-------------------|-------------------------|
G|-------------------|-------------------------|
D|------10-(10)------|-----0-10-(10)-8-(8)-7---|
A|----8---------8----|-----------------------8-|
E|-8--------------0--|-(0)---------------------|


(Bbsus2) (Dm) (Am) C5
Q E E +E E Q +E E E +E E +E E E Q E E +E E Q +W
e|-------------------|-------------------------|--------------------|---------||
B|-------------------|-------------------------|--------------------|---------||
G|-------------------|-------------------------|--------------------|---------||
D|------10-(10)------|-----0-10-(10)-8-(8)-7---|------10-(10)---10--|-(10)----||
A|----8---------8----|-----------------------8-|----7---------7-10--|-(10)----||
E|-8--------------0--|-(0)---------------------|-7--------------10--|-(10)----||


[Pre-chorus]

(Bbsus2) (Dm)
Q E E +E E Q +E E E +E E +E E E
e|-------------------|-------------------------|
B|-------------------|-------------------------|
G|-------------------|-------------------------|
D|------10-(10)------|-----0-10-(10)-8-(8)-7---|
A|----8---------8----|-----------------------8-|
E|-8--------------0--|-(0)---------------------|


(Bbsus2) (Dm)
Q E E +E E Q +E E E +E E +E E E
e|-------------------|-------------------------|
B|-------------------|-------------------------|
G|-------------------|-------------------------|
D|------10-(10)------|-----0-10-(10)-8-(8)-7---|
A|----8---------8----|-----------------------8-|
E|-8--------------0--|-(0)---------------------|


(Bbsus2) (Dm) (Am) C5
Q E E +E E Q +E E E +E E +E E E Q E E +E E Q +W
e|-------------------|-------------------------|--------------------|---------||
B|-------------------|-------------------------|--------------------|---------||
G|-------------------|-------------------------|--------------------|---------||
D|------10-(10)------|-----0-10-(10)-8-(8)-7---|------10-(10)---10--|-(10)----||
A|----8---------8----|-----------------------8-|----7---------7-10--|-(10)----||
E|-8--------------0--|-(0)---------------------|-7--------------10--|-(10)----||


[Verse]

(Bbsus2) (Dm)
Q E E +E E Q +E E E +E E +E E E
e|----------------------|------------------------------|
B|----------------------|------------------------------|
G|----------------------|------------------------------|
D|--------10-(10)-------|------0-10-(10)--8--(8)--7----|
A|------8----------8----|----------------------------8-|
E|--8----------------0--|-(0)--------------------------|
|
| Gtr II
| Q E E +E E Q +E E E +E E +E E E
e|----------------------|------------------------------|
B|--------13-(13)-------|--------13-(13)---------------|
G|----------------------|----------------15-(15)-14----|
D|-----15---------15----|-----12--------------------15-|
A|-13-------------------|------------------------------|
E|-------------------0--|-(0)--------------------------|


(Bbsus2) (Dm)
Q E E +E E Q +E E E +E E +E E E
e|----------------------|------------------------------|
B|----------------------|------------------------------|
G|----------------------|------------------------------|
D|--------10-(10)-------|------0-10-(10)--8--(8)--7----|
A|------8----------8----|----------------------------8-|
E|--8----------------0--|-(0)--------------------------|
|
| Q E E +E E Q +E E E +E E +E E E
e|----------------------|------------------------------|
B|--------13-(13)-------|--------13-(13)---------------|
G|----------------------|----------------15-(15)-14----|
D|-----15---------15----|-----12--------------------15-|
A|-13-------------------|------------------------------|
E|-------------------0--|-(0)--------------------------|


(Bbsus2) (Dm)
Q E E +E E Q +E E E +E E +E E E
e|----------------------|------------------------------|
B|----------------------|------------------------------|
G|----------------------|------------------------------|
D|--------10-(10)-------|------0-10-(10)--8--(8)--7----|
A|------8----------8----|----------------------------8-|
E|--8----------------0--|-(0)--------------------------|
|
| Q E E +E E Q +E E E +E E +E E E
e|----------------------|------------------------------|
B|--------13-(13)-------|--------13-(13)---------------|
G|----------------------|----------------15-(15)-14----|
D|-----15---------15----|-----12--------------------15-|
A|-13-------------------|------------------------------|
E|-------------------0--|-(0)--------------------------|


(Am) C5
Q E E +E E Q +W
e|-----------------------|---------||
B|-----------------------|---------||
G|-----------------------|---------||
D|--------10-(10)----10--|-(10)----||
A|------7----------7-10--|-(10)----||
E|--7----------------10--|-(10)----||
|
| Q E E +E E Q +W
e|-----------------------|---------||
B|--------13-(13)----13--|-(13)----||
G|-------------------12--|-(12)----||
D|-----14---------14-10--|-(10)----||
A|-12--------------------|---------||
E|-----------------------|---------||


[Chorus]

$
D5 Bb5
Gtr III
Q. E E E Q +E E +Q E +E E E
e||------------------|-----------------------|
B||o-----------------|-----------------------|
G||------------------|-----------------------|
D||---0----0-0----8--|--(8)-8-(8)--8-(8)-8-8-|
A||o--0----0-0----8--|--(8)-8-(8)--8-(8)-8-8-|
E||---0----0-0----8--|--(8)-8-(8)--8-(8)-8-8-|
|
| Gtr IV
| H. Q +W
e||--17--------------|-----------------------|
B||o-------------15--|-(15)------------------|
G||------------------|-----------------------|
D||------------------|-----------------------|
A||o-----------------|-----------------------|
E||------------------|-----------------------|


A5 C5
Q. E E E Q +E Q. Q E E
e|-----------------|------------------------||
B|-----------------|-----------------------o||
G|-----------------|------------------------||
D|--7----7-7---10--|-(10)-10----10--10-10---||
A|--7----7-7---10--|-(10)-10----10--10-10--o||
E|--7----7-7---10--|-(10)-10----10--10-10---||
|
| H. Q +W
e|-15--------------|------------------------||
B|-------------13--|-(13)------------------o||
G|-----------------|------------------------||
D|-----------------|------------------------||
A|-----------------|-----------------------o||
E|-----------------|------------------------||


D5 Bb5
Q. E E E Q +E E +Q E +E E E
e|--------------------------|----------------------------|
B|--------------------------|----------------------------|
G|--------------------------|----------------------------|
D|--0---------0--0-----8----|-(8)--8-(8)-----8-(8)--8--8-|
A|--0---------0--0-----8----|-(8)--8-(8)-----8-(8)--8--8-|
E|--0---------0--0-----8----|-(8)--8-(8)-----8-(8)--8--8-|
|
| E E E E E E E E E E E E E E E E
e|-17--13----17-13----17-13-|-----17-13-----17-13--------|
B|--------15-------15-------|-15---------15--------15----|
G|--------------------------|-------------------------14-|
D|--------------------------|----------------------------|
A|--------------------------|----------------------------|
E|--------------------------|----------------------------|


To Coda
A5 C5
Q. E E E Q +E Q. Q E E
e|--------------------------|----------------------------|
B|--------------------------|----------------------------|
G|--------------------------|----------------------------|
D|--7---------7--7----10----|-(10)-10--------10----10-10-|
A|--7---------7--7----10----|-(10)-10--------10----10-10-|
E|--7---------7--7----10----|-(10)-10--------10----10-10-|
|
| E E E E E E E E E E E E E E E E
e|-12--------12-------12----|------12--------13----------|
B|-----13-------13-------13-|----------13-------13-------|
G|--------14-------14-------|--14---------14-------14-15-|
D|--------------------------|----------------------------|
A|--------------------------|----------------------------|
E|--------------------------|----------------------------|


Bb5 D5
E E E E Q Q +E E +Q E +E E E
e|-------------------------|----------------------------|
B|-------------------------|----------------------------|
G|-------------------------|----------------------------|
D|--8--8--8--8--------0----|-(0)--0-(0)-----0-(0)--0--0-|
A|--8--8--8--8--------0----|-(0)--0-(0)-----0-(0)--0--0-|
E|--8--8--8--8--------0----|-(0)--0-(0)-----0-(0)--0--0-|
|
| E E E E E E E E E E E E E E E E
e|-17-13----17-13----17-13-|-----17-13-----17-13-----17-|
B|-------15-------15-------|-15---------15--------15----|
G|-------------------------|----------------------------|
D|-------------------------|----------------------------|
A|-------------------------|----------------------------|
E|-------------------------|----------------------------|


A5 C5
E E E E Q Q +W
e|-----------------------|---------||
B|-----------------------|---------||
G|-----------------------|---------||
D|--7--7--7--7-------10--|-(10)----||
A|--7--7--7--7-------10--|-(10)----||
E|--7--7--7--7-------10--|-(10)----||
|
| E E E E E E Q +W
e|-12-------12-------12--|---------||
B|----13-------13--------|-(17)----||
G|-------14-------14-----|---------||
D|-----------------------|---------||
A|-----------------------|---------||
E|-----------------------|---------||


[Verse 2]

(Bbsus2) (Dm)
Gtr IV
>
W +W
e|----------------------|-------------------------------|
B|-15-------------------|-(15)--------------------------|
G|----------------------|-------------------------------|
D|----------------------|-------------------------------|
A|----------------------|-------------------------------|
E|----------------------|-------------------------------|
|
| Gtr I
| Q E E +E E Q +E E E +E E +E E E
e|----------------------|-------------------------------|
B|----------------------|-------------------------------|
G|----------------------|-------------------------------|
D|--------10-(10)-------|-------0-10-(10)--8--(8)--7----|
A|------8----------8----|-----------------------------8-|
E|--8----------------0--|--(0)--------------------------|
|
| Gtr II
| Q E E +E E Q +E E E +E E +E E E
e|----------------------|-------------------------------|
B|--------13-(13)-------|---------13-(13)---------------|
G|----------------------|-----------------15-(15)-14----|
D|-----15---------15----|------12--------------------15-|
A|-13-------------------|-------------------------------|
E|-------------------0--|--(0)--------------------------|


(Bbsus2) (Dm)
W W
e|----------------------|------------------------------|
B|----------------------|------------------------------|
G|----------------------|------------------------------|
D|----------------------|------------------------------|
A|----------------------|------------------------------|
E|----------------------|------------------------------|
|
| Q E E +E E Q +E E E +E E +E E E
e|----------------------|------------------------------|
B|----------------------|------------------------------|
G|----------------------|------------------------------|
D|--------10-(10)-------|------0-10-(10)--8--(8)--7----|
A|------8----------8----|----------------------------8-|
E|--8----------------0--|-(0)--------------------------|
|
| Q E E +E E Q +E E E +E E +E E E
e|----------------------|------------------------------|
B|--------13-(13)-------|--------13-(13)---------------|
G|----------------------|----------------15-(15)-14----|
D|-----15---------15----|-----12--------------------15-|
A|-13-------------------|------------------------------|
E|-------------------0--|-(0)--------------------------|


(Bbsus2) (Dm)
Gtr I
Q E E +E E Q +E E E +E E +E E E
e|----------------------|------------------------------|
B|----------------------|------------------------------|
G|----------------------|------------------------------|
D|--------10-(10)-------|------0-10-(10)--8--(8)--7----|
A|------8----------8----|----------------------------8-|
E|--8----------------0--|-(0)--------------------------|
|
| Gtr II
| Q E E +E E Q +E E E +E E +E E E
e|----------------------|------------------------------|
B|--------13-(13)-------|--------13-(13)---------------|
G|----------------------|----------------15-(15)-14----|
D|-----15---------15----|-----12--------------------15-|
A|-13-------------------|------------------------------|
E|-------------------0--|-(0)--------------------------|


(Am) C5
Q E E +E E Q +W
e|-----------------------|---------|
B|-----------------------|---------|
G|-----------------------|---------|
D|--------10-(10)----10--|-(10)----|
A|------7----------7-10--|-(10)----|
E|--7----------------10--|-(10)----|
|
| Q E E +E E Q +W
e|-----------------------|---------|
B|--------13-(13)----13--|-(13)----|
G|-------------------12--|-(12)----|
D|-----14---------14-10--|-(10)----|
A|-12--------------------|---------|
E|-----------------------|---------|


(Bbsus2) (Dm)
Q E E +E E Q +E E E +E E +E E E
e|----------------------|------------------------------|
B|----------------------|------------------------------|
G|----------------------|------------------------------|
D|--------10-(10)-------|------0-10-(10)--8--(8)--7----|
A|------8----------8----|----------------------------8-|
E|--8----------------0--|-(0)--------------------------|
|
| Q E E +E E Q +E E E +E E +E E E
e|----------------------|------------------------------|
B|--------13-(13)-------|--------13-(13)---------------|
G|----------------------|----------------15-(15)-14----|
D|-----15---------15----|-----12--------------------15-|
A|-13-------------------|------------------------------|
E|-------------------0--|-(0)--------------------------|


(Bbsus2) (Dm)
Q E E +E E Q +E E E +E E +E E E
e|----------------------|------------------------------|
B|----------------------|------------------------------|
G|----------------------|------------------------------|
D|--------10-(10)-------|------0-10-(10)--8--(8)--7----|
A|------8----------8----|----------------------------8-|
E|--8----------------0--|-(0)--------------------------|
|
| Q E E +E E Q +E E E +E E +E E E
e|----------------------|------------------------------|
B|--------13-(13)-------|--------13-(13)---------------|
G|----------------------|----------------15-(15)-14----|
D|-----15---------15----|-----12--------------------15-|
A|-13-------------------|------------------------------|
E|-------------------0--|-(0)--------------------------|


(Bbsus2) (Dm)
Q E E +E E Q +E E E +E E +E E E
e|----------------------|------------------------------|
B|----------------------|------------------------------|
G|----------------------|------------------------------|
D|--------10-(10)-------|------0-10-(10)--8--(8)--7----|
A|------8----------8----|----------------------------8-|
E|--8----------------0--|-(0)--------------------------|
|
| Q E E +E E Q +E E E +E E +E E E
e|----------------------|------------------------------|
B|--------13-(13)-------|--------13-(13)---------------|
G|----------------------|----------------15-(15)-14----|
D|-----15---------15----|-----12--------------------15-|
A|-13-------------------|------------------------------|
E|-------------------0--|-(0)--------------------------|


D.S. al Coda
(Am) C5
Q E E +E E Q +W
e|-----------------------|----------||
B|-----------------------|----------||
G|-----------------------|----------||
D|--------10-(10)----10--|-(10)-----||
A|------7----------7-10--|-(10)-----||
E|--7----------------10--|-(10)-----||
|
| Q E E +E E Q +W
e|-----------------------|----------||
B|--------13-(13)----13--|-(13)-----||
G|-------------------12--|-(12)-----||
D|-----14---------14-10--|-(10)-----||
A|-12--------------------|----------||
E|-----------------------|----------||


[Chorus]

&
Bb5 D5
Gtr III
E E E E Q Q +E E +Q E +E E E
e|-------------------------|----------------------------|
B|-------------------------|----------------------------|
G|-------------------------|----------------------------|
D|--8--8--8--8--------0----|-(0)--0-(0)-----0-(0)--0--0-|
A|--8--8--8--8--------0----|-(0)--0-(0)-----0-(0)--0--0-|
E|--8--8--8--8--------0----|-(0)--0-(0)-----0-(0)--0--0-|
|
| Gtr IV
| E E E E E E E E E E E E E E E E
e|-17-13----17-13----17-13-|-----17-13-----17-13-----17-|
B|-------15-------15-------|-15---------15--------15----|
G|-------------------------|----------------------------|
D|-------------------------|----------------------------|
A|-------------------------|----------------------------|
E|-------------------------|----------------------------|


A5 C5
E E E E Q Q +E E E E E E E E
e|-------------------------|---------------------------||
B|-------------------------|---------------------------||
G|-------------------------|---------------------------||
D|--7--7--7--7-------10----|-(10)-10-10-10-10-10-10-10-||
A|--7--7--7--7-------10----|-(10)-10-10-10-10-10-10-10-||
E|--7--7--7--7-------10----|-(10)-10-10-10-10-10-10-10-||
|
| E E E E E E E E E E E E E E E E
e|-12-------12-------12----|------12-------13-------12-||
B|----13-------13-------13-|---------13-------13-------||
G|-------14-------14-------|--14--------14-------14----||
D|-------------------------|---------------------------||
A|-------------------------|---------------------------||
E|-------------------------|---------------------------||


[Bridge]

Bb5 F5 C5
Gtrs III, IV
E E E E Q E E E E Q E E E E Q. Q. Q +E E E +E E +E E E 3x
e||-----------------|----------------|--------------|-------------------------||
B||o----------------|----------------|--------------|------------------------o||
G||-----------------|----------------|-----------5--|-(5)-5-5-(5)-5-(5)-5-5---||
D||--8-8-8-8----8-8-|-8-8----8-8-8-8-|-3----3----5--|-(5)-5-5-(5)-5-(5)-5-5---||
A||o-8-8-8-8----8-8-|-8-8----8-8-8-8-|-3----3----3--|-(3)-3-3-(3)-3-(3)-3-3--o||
E||--8-8-8-8----8-8-|-8-8----8-8-8-8-|-3----3-------|-------------------------||


Bb5 A5 C5
Q Q Q Q Q Q Q Q E E E E E E Q +W
e|-------------|-------------|-----------------|---------||
B|-------------|-------------|-----------------|---------||
G|-------------|-------------|-----------------|---------||
D|-8--8--8--8--|-8--8--8--8--|-7-7-7-7---x-10--|-(10)----||
A|-8--8--8--8--|-8--8--8--8--|-7-7-7-7---x-10--|-(10)----||
E|-8--8--8--8--|-8--8--8--8--|-7-7-7-7---x-10--|-(10)----||


[Guitar Break]

(Bbsus2) (Dm) (Bbsus2) (Dm)
Gtr I
Q E E +E E Q +W Q E E +E E Q +W
e|--------------------|-------------|--------------------|---------|
B|--------------------|-------------|--------------------|---------|
G|--------------------|-------------|--------------------|---------|
D|------10-(10)---12--|-(12)--------|------10-(10)---12--|-(12)----|
A|----8---------------|-------------|----8---------------|---------|
E|-8------------0-----|-------------|-8------------0-----|---------|


(Bbsus2) (Dm) Bb
Q E E +E E Q +W W +W
e|--------------------|-------------|-----------|---------||
B|--------------------|-------------|-----------|---------||
G|--------------------|-------------|-----------|---------||
D|------10-(10)---12--|-(12)--------|-12--------|-(12)----||
A|----8---------------|-------------|--8--------|--(8)----||
E|-8------------0-----|-------------|--8--------|--(8)----||


[Chorus]

D5 Bb5
Gtr III
Q. E E E Q +E E +Q E +E E E
e||------------------|-----------------------|
B||o-----------------|-----------------------|
G||------------------|-----------------------|
D||---0----0-0----8--|--(8)-8-(8)--8-(8)-8-8-|
A||o--0----0-0----8--|--(8)-8-(8)--8-(8)-8-8-|
E||---0----0-0----8--|--(8)-8-(8)--8-(8)-8-8-|
|
| Gtr IV
| H. Q +W
e||--17--------------|-----------------------|
B||o-------------15--|-(15)------------------|
G||------------------|-----------------------|
D||------------------|-----------------------|
A||o-----------------|-----------------------|
E||------------------|-----------------------|


A5 C5
Q. E E E Q +E Q. Q E E
e|-----------------|------------------------||
B|-----------------|-----------------------o||
G|-----------------|------------------------||
D|--7----7-7---10--|-(10)-10----10--10-10---||
A|--7----7-7---10--|-(10)-10----10--10-10--o||
E|--7----7-7---10--|-(10)-10----10--10-10---||
|
| H. Q +W
e|-15--------------|------------------------||
B|-------------13--|-(13)------------------o||
G|-----------------|------------------------||
D|-----------------|------------------------||
A|-----------------|-----------------------o||
E|-----------------|------------------------||


D5 Bb5
Q. E E E Q +E E +Q E +E E E
e|--------------------------|----------------------------|
B|--------------------------|----------------------------|
G|--------------------------|----------------------------|
D|--0---------0--0-----8----|-(8)--8-(8)-----8-(8)--8--8-|
A|--0---------0--0-----8----|-(8)--8-(8)-----8-(8)--8--8-|
E|--0---------0--0-----8----|-(8)--8-(8)-----8-(8)--8--8-|
|
| E E E E E E E E E E E E E E E E
e|-17--13----17-13----17-13-|-----17-13-----17-13--------|
B|--------15-------15-------|-15---------15--------15----|
G|--------------------------|-------------------------14-|
D|--------------------------|----------------------------|
A|--------------------------|----------------------------|
E|--------------------------|----------------------------|


A5 C5
Q. E E E Q +E Q. Q E E
e|--------------------------|----------------------------|
B|--------------------------|----------------------------|
G|--------------------------|----------------------------|
D|--7---------7--7----10----|-(10)-10--------10----10-10-|
A|--7---------7--7----10----|-(10)-10--------10----10-10-|
E|--7---------7--7----10----|-(10)-10--------10----10-10-|
|
| E E E E E E E E E E E E E E E E
e|-12--------12-------12----|------12--------13----------|
B|-----13-------13-------13-|----------13-------13-------|
G|--------14-------14-------|--14---------14-------14-15-|
D|--------------------------|----------------------------|
A|--------------------------|----------------------------|
E|--------------------------|----------------------------|


Bb5 D5
E E E E Q Q +E E +Q E +E E E
e|-------------------------|----------------------------|
B|-------------------------|----------------------------|
G|-------------------------|----------------------------|
D|--8--8--8--8--------0----|-(0)--0-(0)-----0-(0)--0--0-|
A|--8--8--8--8--------0----|-(0)--0-(0)-----0-(0)--0--0-|
E|--8--8--8--8--------0----|-(0)--0-(0)-----0-(0)--0--0-|
|
| E E E E E E E E E E E E E E E E
e|-17-13----17-13----17-13-|-----17-13-----17-13-----17-|
B|-------15-------15-------|-15---------15--------15----|
G|-------------------------|----------------------------|
D|-------------------------|----------------------------|
A|-------------------------|----------------------------|
E|-------------------------|----------------------------|


A5 C5
E E E E Q Q +E E E E E E E E
e|-------------------------|---------------------------|
B|-------------------------|---------------------------|
G|-------------------------|---------------------------|
D|--7--7--7--7-------10----|-(10)-10-10-10-10-10-10-10-|
A|--7--7--7--7-------10----|-(10)-10-10-10-10-10-10-10-|
E|--7--7--7--7-------10----|-(10)-10-10-10-10-10-10-10-|
|
| E E E E E E E E E E E E E E E E
e|-12-------12-------12----|------12-------13-------12-|
B|----13-------13-------13-|---------13-------13-------|
G|-------14-------14-------|--14--------14-------14----|
D|-------------------------|---------------------------|
A|-------------------------|---------------------------|
E|-------------------------|---------------------------|


Bb5 D5
E E E E Q Q +E E +Q E +E E E
e|------------------|-----------------------|
B|------------------|-----------------------|
G|------------------|-----------------------|
D|--8--8-8-8-----0--|--(0)-0-(0)--0-(0)-0-0-|
A|--8--8-8-8-----0--|--(0)-0-(0)--0-(0)-0-0-|
E|--8--8-8-8-----0--|--(0)-0-(0)--0-(0)-0-0-|
|
| H. Q +W
e|-17---------------|-----------------------|
B|--------------15--|-(15)------------------|
G|------------------|-----------------------|
D|------------------|-----------------------|
A|------------------|-----------------------|
E|------------------|-----------------------|


A5 C5
E E E E Q Q +E E E E E E E E
e|------------------|---------------------------|
B|------------------|---------------------------|
G|------------------|---------------------------|
D|--7--7-7-7----10--|-(10)-10-10-10-10-10-10-10-|
A|--7--7-7-7----10--|-(10)-10-10-10-10-10-10-10-|
E|--7--7-7-7----10--|-(10)-10-10-10-10-10-10-10-|
|
| H. Q +W
e|-15---------------|---------------------------|
B|--------------13--|-(13)----------------------|
G|------------------|---------------------------|
D|------------------|---------------------------|
A|------------------|---------------------------|
E|------------------|---------------------------|


Bb5 D5 A5 C5
E E E E Q Q +E E +Q E +E E E E E E E Q Q +W
e|------------------|-----------------------|------------------|---------||
B|------------------|-----------------------|------------------|---------||
G|------------------|-----------------------|------------------|---------||
D|--8--8-8-8-----0--|--(0)-0-(0)--0-(0)-0-0-|--7--7-7-7----10--|-(10)----||
A|--8--8-8-8-----0--|--(0)-0-(0)--0-(0)-0-0-|--7--7-7-7----10--|-(10)----||
E|--8--8-8-8-----0--|--(0)-0-(0)--0-(0)-0-0-|--7--7-7-7----10--|-(10)----||
|
| H. Q +W H. Q +W
e|-17---------------|-----------------------|-15---------------|---------||
B|--------------15--|-(15)------------------|--------------13--|-(13)----||
G|------------------|-----------------------|------------------|---------||
D|------------------|-----------------------|------------------|---------||
A|------------------|-----------------------|------------------|---------||
E|------------------|-----------------------|------------------|---------||


[Outro]

(Bbsus2) (Dm)
Gtr I
Q E E +E E Q +E E E +E E +E E E
e|-------------------|-------------------------|
B|-------------------|-------------------------|
G|-------------------|-------------------------|
D|------10-(10)------|-----0-10-(10)-8-(8)-7---|
A|----8---------8----|-----------------------8-|
E|-8--------------0--|-(0)---------------------|


(Bbsus2) (Dm)
Q E E +E E Q +E E E +E E +E E E
e|-------------------|-------------------------|
B|-------------------|-------------------------|
G|-------------------|-------------------------|
D|------10-(10)------|-----0-10-(10)-8-(8)-7---|
A|----8---------8----|-----------------------8-|
E|-8--------------0--|-(0)---------------------|


(Bbsus2) (Dm) (Am) C5
Q E E +E E Q +E E E +E E +E E E Q E E +E E Q +W
e|-------------------|-------------------------|--------------------|---------*|
B|-------------------|-------------------------|--------------------|---------*|
G|-------------------|-------------------------|--------------------|---------*|
D|------10-(10)------|-----0-10-(10)-8-(8)-7---|------10-(10)---10--|-(10)----*|
A|----8---------8----|-----------------------8-|----7---------7-10--|-(10)----*|
E|-8--------------0--|-(0)---------------------|-7--------------10--|-(10)----*|


********************************************
(n) Ghost note
x on rhythm slash represents muted slash
********************************************
Tunning: Drop D (D A D G B E)
Hey,
This is my 3rd Tab.
I really put nice stuff into it. please comment, rate, whatever.

This is how i play my version of never too late
i hope it is useful to someone.

enjoy...

Artist: Three Days Grace
Album: One-x
Song: Never too Late ( Acoustic )


[Intro And Verse]

(x3) (x1)
E|--------------------------------|-------------------|
B|--------------------------------|-------------------|
G|--------------------------------|-------------------|
D|-------10-----------10--8--7--0-|-------10-----10---|
A|----8------8-----0--------------|----7------7--10---|
D|-8------------0-----------------|-7------------10---|


[Chorus] Acoustic

E----------------------------------------------------------|
B----------------------------------------------------------|
G--2--3~--0--5~--2--3~--0--5~--2--3~--0--5~--3--2~--0--5~--|
D--0--3~--2--5~--0--3~--2--5~--0--3~--2--5~--3--0~--2--5~--|
A--0--1~--0--3~--0--1~--0--3~--0--1~--0--3~--1--0~--0--3~--|
D--0-------------0-------------0----------------0----------|


[Verse]
(x3) (x1)
E|--------------------------------|-------------------|
B|--------------------------------|-------------------|
G|--------------------------------|-------------------|
D|-------10-----------10--8--7--0-|-------10-----10---|
A|----8------8-----0--------------|----7------7--10---|
D|-8------------0-----------------|-7------------10---|


[Chorus] (Acoustic) x1

E|-----------------------------------------------------------------|
B|----------------------10's------------------------------10's-----|
G|-----------------------------------------------------------------|
D|-0----88888----7----1010101010----0----88888----7----1010101010--|
A|-0----88888----7----1010101010----0----88888----7----1010101010--|
D|-0----88888----7----1010101010----0----88888----7----1010101010--|

E|------------------------------------------------------------|
B|-----------------------10's---------------------------------|
G|------------------------------------------------------------|
D|-0----88888----7----1010101010----8888---0----77777----10~--|
A|-0----88888----7----1010101010----8888---0----77777----10~--|
D|-0----88888----7----1010101010----8888---0----77777----10~--|


[Bridge] (x3) (x1)
E|---------------------------------------------|--------------------|
B|---------------------------------------------|--------------------|
G|---------------------------------------------|--------------------|
D|-8-8-8-8--8-8-8-8--8-8--3-3-3--10-10-10-10---|-8888888--7777--10--|
A|-8-8-8-8--8-8-8-8--8-8--3-3-3--10-10-10-10---|-8888888--7777--10--|
D|-8-8-8-8--8-8-8-8--8-8--3-3-3--10-10-10-10---|-8888888--7777--10--|

ALTERNATE BRIGDE:
----------------
(x3) (x1)
E|----------------------------------------|------------------|
B|----------------------------------------|------------------|
G|-------------------------------5-5-5----|-3-3-3--0--5~-----|
D|-8-8-8-8--8-8-8-8--8-8--3-3-3--5-5-5----|-3-3-3--2--5~-----|
A|-8-8-8-8--8-8-8-8--8-8--3-3-3--3-3-3----|-1-1-1--0--3~-----|
D|-8-8-8-8--8-8-8-8--8-8--3-3-3-----------|------------------|

E|------------------| E----------------------|
B|------------------| B----------------------|
G|------------------| (x3)Then, >>> G----------------------|
D|-------10-----12--| D---12~~~--<12>--------|
A|----8-------------| A---10~~~--<12>--------|
D|-8---------0------| D---10~~~--<12>--------|


[Chorus]
(Acoustic) x1
E|-----------------------------------------------------------------|
B|----------------------10's------------------------------10's-----|
G|-----------------------------------------------------------------|
D|-0----88888----7----1010101010----0----88888----7----1010101010--|
A|-0----88888----7----1010101010----0----88888----7----1010101010--|
D|-0----88888----7----1010101010----0----88888----7----1010101010--|

E|------------------------------------------------------------|
B|-----------------------10's---------------------------------|
G|------------------------------------------------------------|
D|-0----88888----7----1010101010----8888---0----77777----10~--|
A|-0----88888----7----1010101010----8888---0----77777----10~--|
D|-0----88888----7----1010101010----8888---0----77777----10~--|


[Outro]
(x3) (x1)
E|--------------------------------|-----------------------|
B|--------------------------------|-----------------------|
G|--------------------------------|-----------------------|
D|-------10-----------10--8--7--0-|-------10-----10-<10>--|
A|----8------8-----0--------------|----7------7--10-<10>--|
D|-8------------0-----------------|-7------------10-<10>--|

======================================================

Tablature Legend
----------------
h - hammer-on
p - pull-off
b - bend
pb - pre-bend
r - bend release (if no number after the r, then release immediately)
/\ - slide into or out of (from/to "nowhere")
s - legato slide
S - shift slide
- natural harmonic
[n] - artificial harmonic
n(n) - tapped harmonic
~ - vibrato
tr - trill
T - tap
TP - trem. picking
PM - palm muting
\n/ - tremolo bar dip; n = amount to dip
\n - tremolo bar down
n/ - tremolo bar up
/n\ - tremolo bar inverted dip
= - hold bend; also acts as connecting device for hammers/pulls
<> - volume swell (louder/softer)
x - on rhythm slash represents muted slash
o - on rhythm slash represents single note slash



************************************

| natural harmonic
| ~ Vibrato

************************************
Tunning: Standard (E A D G B e)
Three Days Grace - "Never Too Late"
Album: One-X

Tabbed by: Sicfreak91

Was kinda hoping this new album was gonna stick to one tuning ... but i guess not

Tuning: Drop D

Intro: (acoustic)
Guitar 1:
|---------------------------------------------------------------|
|-----1--------1--------------1--------1------------------------|
|----------------3-2~--------------------3-2~-------------------|
|---3---3-------------------3---3-------------------------------|
|-1---------------------0h1-------------------------------------|
|---------0~--0-------------------0~--0-------------------------|x1

|---------------------------------------------------------------|
|-------1--------1------------1----1~---------------------------|
|------------------3-2~------------0~---------------------------|
|-----3---3-----------------3---3--2~---------------------------|
|-0h1-------------------0h1--------3~---------------------------|
|-----------0~--0-----------------------------------------------|x1


Verse 1:
Guitar 1:
|---------------------------------------------------------------|
|-----1--------1--------------1--------1------------------------|
|----------------3-2~--------------------3-2~-------------------|
|---3---3-------------------3---3-------------------------------|
|-1---------------------0h1-------------------------------------|
|---------0~--0-------------------0~--0-------------------------|x1

|---------------------------------------------------------------|
|-------1--------1------------1----1~---------------------------|
|------------------3-2~------------0~---------------------------|
|-----3---3-----------------3---3--2~---------------------------|
|-0h1-------------------0h1--------3~---------------------------|
|-----------0~--0-----------------------------------------------|x1

Now gtr. 2 comes in ...
Guitar 1:
|---------------------------------------------------------------|
|-----1--------1--------------1--------1------------------------|
|----------------3-2~--------------------3-2~-------------------|
|---3---3-------------------3---3-------------------------------|
|-1---------------------0h1-------------------------------------|
|---------0~--0-------------------0~--0-------------------------|
x1
Guitar 2:
|---------------------------------------------------------------|
|-----1--------1--------------1--------1------------------------|
|---------2~-----3-2~-------------2~-----3-2~-------------------|
|---3---3-------------------3---3-------------------------------|
|-1---------------------0h1-------------------------------------|
|-------------0-----------------------0-------------------------|
================
Guitar 1:
|---------------------------------------------------------------|
|-------1--------1------------1----1~---------------------------|
|------------------3-2~------------0~---------------------------|
|-----3---3-----------------3---3--2~---------------------------|
|-0h1-------------------0h1--------3~---------------------------|
|-----------0~--0-----------------------------------------------|
x1
Guitar 2:
|---------------------------------------------------------------|
|-------1--------1------------1----1~---------------------------|
|-----------2~-----3-2~------------0~---------------------------|
|-----3---3-----------------3---3--2~---------------------------|
|-0h1-------------------0h1--------3~---------------------------|
|---------------0-----------------------------------------------|


Chorus:
|---------------------------------------------------------------|
|---------------------------------------------------------------|
|---------------------------------------------------------------|
|-0~--88888-777-1010101010------888--0~--777-10~----------------|
|-0~--88888-777-1010101010------888--0~--777-10~----------------|
|-0~--88888-777-1010101010-(x3)-888--0~--777-10~-(x1)-----------|


Verse 2: same as verse 1 - with guitar 2 (x2)


Chorus 2:
|---------------------------------------------------------------|
|---------------------------------------------------------------|
|---------------------------------------------------------------|
|-0~--88888-777-1010101010------888--0~--777-1010101010---------|
|-0~--88888-777-1010101010------888--0~--777-1010101010---------|
|-0~--88888-777-1010101010-(x3)-888--0~--777-1010101010-(x1)----|


Bridge:
|---------------------------------------------------------------|
|---------------------------------------------------------------|
|---------------------------------------------------------------|
|-888--888--888-3-33-1010101010-------88888888-77-xx--10~-------|
|-888--888--888-3-33-1010101010-------88888888-77-xx--10~-------|
|-888--888--888-3-33-1010101010-(x3)--88888888-77-xx--10~-(x1)--|

(acoustic)
|---------------------------------------------------------------|
|-----1---3~----------------------------------------------------|
|---------------------------------------------------------------|
|---3---3-------------------------------------------------------|
|-1-------------------------------------------------------------|
|---------------------------------------------------------------|x3


Chorus 3:
|---------------------------------------------------------------|
|---------------------------------------------------------------|
|---------------------------------------------------------------|
|-0~--88888-777-1010101010------888--0~--777-10~----------------|
|-0~--88888-777-1010101010------888--0~--777-10~----------------|
|-0~--88888-777-1010101010-(x3)-888--0~--777-10~-(x3)-----------|


Outro: (acoustic)
Guitar 1:
|---------------------------------------------------------------|
|-----1--------1--------------1--------1------------------------|
|----------------3-2~--------------------3-2~-------------------|
|---3---3-------------------3---3-------------------------------|
|-1---------------------0h1-------------------------------------|
|---------0~--0-------------------0~--0-------------------------|x1

|---------------------------------------------------------------|
|-------1--------1------------1----1~---------------------------|
|------------------3-2~------------0~---------------------------|
|-----3---3-----------------3---3--2~---------------------------|
|-0h1-------------------0h1-------------------------------------|
|-----------0~--0-----------------------------------------------|x1
Tunning: Drop D (D A D G B E)
Song:Never Too Late
Band: Three Days Grace
Album: One-X
Tuning: Drop D
Tabbed By: I_R_Uber_001

[Intro/verse/outro acoustic] (x3) (x1)
E|--------------------------------|-------------------|
B|--------------------------------|-------------------|
G|--------------------------------|-------------------|
D|-------10-----------10--8--7--0-|-------10-----10---|
A|----8------8-----0--------------|----7------7--10---|
D|-8------------0-----------------|-7------------10---|

Chorus distorted (x1)
E|-----------------------------------------|
B|-----------------------------------------|
G|-----------------------------------------|
D|-0----8----7----10----0----8----7----10--|
A|-0----8----7----10----0----8----7----10--|
D|-0----8----7----10----0----8----7----10--|

E|-----------------------------------------|
B|-----------------------------------------|
G|-----------------------------------------|
D|-0----8----7----10----88---0----7----10--|
A|-0----8----7----10----88---0----7----10--|
D|-0----8----7----10----88---0----7----10--|

[Intro/verse/outro acoustic] (x3) (x1)
E|--------------------------------|-------------------|
B|--------------------------------|-------------------|
G|--------------------------------|-------------------|
D|-------10-----------10--8--7--0-|-------10-----10---|
A|----8------8-----0--------------|----7------7--10---|
D|-8------------0-----------------|-7------------10---|

[Chorus] distorted (x1)
E|-----------------------------------------|
B|-----------------------------------------|
G|-----------------------------------------|
D|-0----8----7----10----0----8----7----10--|
A|-0----8----7----10----0----8----7----10--|
D|-0----8----7----10----0----8----7----10--|

E|-----------------------------------------|
B|-----------------------------------------|
G|-----------------------------------------|
D|-0----8----7----10----88---0----7----10--|
A|-0----8----7----10----88---0----7----10--|
D|-0----8----7----10----88---0----7----10--|

[Bridge] (x3) (x1)
E|---------------------------------------------|-----------|
B|--------------- -----------------------------|-----------|
G|---------------------------------------------|-----------|
D|-8-8-8-8--8-8-8-8--8-8--3-3-3--10-10-10-10---|-8--7--10--|
A|-8-8-8-8--8-8-8-8--8-8--3-3-3--10-10-10-10---|-8--7--10--|
D|-8-8-8-8--8-8-8-8--8-8--3-3-3--10-10-10-10---|-8--7--10--|

E|------------------|
B|------------------|
G|------------------| (x3)
D|-------10-----12--|
A|----8-------------|
D|-8---------0------|

[Chorus] distorted (x1)
E|-----------------------------------------|
B|-----------------------------------------|
G|-----------------------------------------|
D|-0----8----7----10----0----8----7----10--|
A|-0----8----7----10----0----8----7----10--|
D|-0----8----7----10----0----8----7----10--|

(x6)
E|--------------------|-----------|
B|--------------------|-----------|
G|--------------------|-----------|
D|-0----8----7----10--|-88---0----|
A|-0----8----7----10--|-88---0----|
D|-0----8----7----10--|-88---0----|

[Intro/verse/outro acoustic] (x3) (x1)
E|--------------------------------|-------------------|
B|--------------------------------|-------------------|
G|--------------------------------|-------------------|
D|-------10-----------10--8--7--0-|-------10-----10---|
A|----8------8-----0--------------|----7------7--10---|
D|-8------------0-----------------|-7------------10---|


There was a second guitar(Which I didn't tab) in studios but since live there's only one
i think this is how he will play it live.
Any comments,corrections or questions e-mail me at rolling_suicide_314@hotmail.com
Tunning: Drop D (D A D G B E)
Never Too Late


Three Days Grace
Track 1



Q E Q E Q Q Q Q E E Q E Q E Q
E|------------------------|------------------------|------------------------|
B|------------------------|------------------------|------------------------|
G|------------------------|------------------------|------------------------|
D|----------10------------|-------10----8----7--0--|----------10------------|
A|-------8--------8-------|--0---------------------|-------8--------8-------|
D|--8----------------0----|------------------------|--8----------------0----|


Q Q Q E E Q E Q E Q Q Q Q E E
E|------------------------|------------------------|------------------------|
B|------------------------|------------------------|------------------------|
G|------------------------|------------------------|------------------------|
D|-------10----8----7--0--|----------10------------|-------10----8----7--0--|
A|--0---------------------|-------8--------8-------|--0---------------------|
D|------------------------|--8----------------0----|------------------------|


This
Q E Q E Q W Q E Q E Q
E|-------------------------|-------------------|------------------------|
B|-------------------------|-------------------|------------------------|
G|-------------------------|-------------------|------------------------|
D|----------10-------10----|--L----------------|----------10------------|
A|-------7--------7--10----|--L----------------|-------8--------8-------|
D|--7----------------10----|--L----------------|--8----------------0----|


world will never be What I ex- pect- ed
Q Q Q E E Q E Q E Q Q Q Q E E
E|--------------------------|------------------------|-------------------------|
B|--------------------------|------------------------|-------------------------|
G|--------------------------|------------------------|-------------------------|
D|--------10----8-----7--0--|----------10------------|-------10----8-----7--0--|
A|--0-----------------------|-------8--------8-------|--0----------------------|
D|--------------------------|--8----------------0----|-------------------------|


And if I don't be- long Who
Q E Q E Q Q Q Q E E Q E Q E Q
E|------------------------|----------------------------|-------------------------|
B|------------------------|----------------------------|-------------------------|
G|------------------------|----------------------------|-------------------------|
D|----------10------------|-------10----8-----7---0----|----------10-------10----|
A|-------8--------8-------|--0-------------------------|-------7--------7--10----|
D|--8----------------0----|----------------------------|--7----------------10----|


would have guessedit I will not leave al- one
W Q E Q E Q Q Q Q E E
E|-------------------|-----------------------------|---------------------------|
B|-------------------|-----------------------------|---------------------------|
G|-------------------|-----------------------------|---------------------------|
D|--L----------------|-------------10--------------|-------10----8-----7---0---|
A|--L----------------|--------8------------8-------|--0------------------------|
D|--L----------------|--8---------------------0----|---------------------------|


Every- thing that I own To
Q E Q E Q Q Q Q E E Q E Q E Q
E|--------------------------|--------------------------|------------------------|
B|--------------------------|--------------------------|------------------------|
G|--------------------------|--------------------------|------------------------|
D|----------10--------------|--------10----8----7---0--|----------10------------|
A|-------8--------8---------|--0-----------------------|-------8--------8-------|
D|--8----------------0------|--------------------------|--8----------------0----|


make you feel like it's not too late It's never too
Q Q Q E E Q E Q E Q
E|----------------------------|---------------------------------|
B|----------------------------|---------------------------------|
G|----------------------------|---------------------------------|
D|-------10----8----7----0----|---------------10----------10----|
A|--0-------------------------|----------7----------7-----10----|
D|----------------------------|--7------------------------10----|


late Even if I say
W Q E E E E Q W
E|-------------------|---------------------------|-------------------|
B|-------------------|---------------------------|-------------------|
G|-------------------|---------------------------|-------------------|
D|--L----------------|--0----0--0--x--x--8-------|--L----------------|
A|--L----------------|--0----0--0--x--x--8-------|--L----------------|
D|--L----------------|--0----0--0--x--x--8-------|--L----------------|


It'll be alright
Q E E E E Q W
E|-----------------------------|-------------------|
B|-----------------------------|-------------------|
G|-----------------------------|-------------------|
D|--7-----7--7--x--x-----10----|--L----------------|
A|--7-----7--7--x--x-----10----|--L----------------|
D|--7-----7--7--x--x-----10----|--L----------------|


Still I hear you say
Q E E E E Q W
E|------------------------------|-------------------|
B|------------------------------|-------------------|
G|------------------------------|-------------------|
D|--0-------0--0--x--x--8-------|--L----------------|
A|--0-------0--0--x--x--8-------|--L----------------|
D|--0-------0--0--x--x--8-------|--L----------------|


You want to end your life
Q E E E E Q W
E|-------------------------------------|-------------------|
B|-------------------------------------|-------------------|
G|-------------------------------------|-------------------|
D|--7--------7---7--x--x--------10-----|--L----------------|
A|--7--------7---7--x--x--------10-----|--L----------------|
D|--7--------7---7--x--x--------10-----|--L----------------|


Now and again we try
Q E E E E Q W
E|--------------------------------------|-------------------|
B|--------------------------------------|-------------------|
G|--------------------------------------|-------------------|
D|--0---------0--0--x--x-------8--------|--L----------------|
A|--0---------0--0--x--x-------8--------|--L----------------|
D|--0---------0--0--x--x-------8--------|--L----------------|


To just stay alive
Q E E E E Q W
E|-----------------------------------|-------------------|
B|-----------------------------------|-------------------|
G|-----------------------------------|-------------------|
D|--7----7--7--x--x-------10---------|--L----------------|
A|--7----7--7--x--x-------10---------|--L----------------|
D|--7----7--7--x--x-------10---------|--L----------------|


Maybe we'll turn it around 'Cause
Q E E E E Q W
E|------------------------------------------|-------------------|
B|------------------------------------------|-------------------|
G|------------------------------------------|-------------------|
D|--8-----------8-------8------x--x--0------|--L----------------|
A|--8-----------8-------8------x--x--0------|--L----------------|
D|--8-----------8-------8------x--x--0------|--L----------------|


it's not too late It's never too late
Q E E E E Q W
E|----------------------------------------------|-------------------|
B|----------------------------------------------|-------------------|
G|----------------------------------------------|-------------------|
D|--7--------7--------7--x--x----------10-------|--L----------------|
A|--7--------7--------7--x--x----------10-------|--L----------------|
D|--7--------7--------7--x--x----------10-------|--L----------------|


No one will ever see This
Q E Q E Q Q Q Q E E Q E Q E Q
E|------------------------|-------------------------|------------------------|
B|------------------------|-------------------------|------------------------|
G|------------------------|-------------------------|------------------------|
D|----------10------------|-------10----8----7---0--|----------10------------|
A|-------8--------8-------|--0----------------------|-------8--------8-------|
D|--8----------------0----|-------------------------|--8----------------0----|


side re- flect- ed And
Q Q Q E E Q E Q E Q
E|--------------------------|------------------------|
B|--------------------------|------------------------|
G|--------------------------|------------------------|
D|-------10----8------7--0--|----------10------------|
A|--0-----------------------|-------8--------8-------|
D|--------------------------|--8----------------0----|


if there's some- thing wrong Who would
Q Q Q E E Q E Q E Q
E|--------------------------------|------------------------------|
B|--------------------------------|------------------------------|
G|--------------------------------|------------------------------|
D|-------10------8----7-----0-----|-----------10-------10--------|
A|--0-----------------------------|--------7--------7--10--------|
D|--------------------------------|--7-----------------10--------|


have guessed it And I have left a- lone
W Q E Q E Q Q Q Q E E
E|-------------------|--------------------------------|--------------------------|
B|-------------------|--------------------------------|--------------------------|
G|-------------------|--------------------------------|--------------------------|
D|--L----------------|------------------10------------|-------10----8----7--0----|
A|--L----------------|---------------8--------8-------|--0-----------------------|
D|--L----------------|--8------------------------0----|--------------------------|


Everything that I own
Q E Q E Q Q Q Q E E
E|------------------------------|------------------------|
B|------------------------------|------------------------|
G|------------------------------|------------------------|
D|----------10------------------|-------10----8----7--0--|
A|-------8--------8-------------|--0---------------------|
D|--8----------------0----------|------------------------|


To make you feel like It's
Q E Q E Q Q Q Q E E
E|------------------------|----------------------------|
B|------------------------|----------------------------|
G|------------------------|----------------------------|
D|----------10------------|-------10----8----7----0----|
A|-------8--------8-------|--0-------------------------|
D|--8----------------0----|----------------------------|


not too late It's never too late
Q E Q E Q W
E|--------------------------------|-------------------|
B|--------------------------------|-------------------|
G|--------------------------------|-------------------|
D|---------------10---------10----|--L----------------|
A|----------7----------7----10----|--L----------------|
D|--7-----------------------10----|--L----------------|


Even if I say
Q E E E E Q W
E|--------------------------------|-------------------|
B|--------------------------------|-------------------|
G|--------------------------------|-------------------|
D|--0----0----0--x--x-------8-----|--L----------------|
A|--0----0----0--x--x-------8-----|--L----------------|
D|--0----0----0--x--x-------8-----|--L----------------|


It'll be alright
Q E E E E Q W
E|------------------------------|-------------------|
B|------------------------------|-------------------|
G|------------------------------|-------------------|
D|--7----7--7--x-----x--10------|--L----------------|
A|--7----7--7--x-----x--10------|--L----------------|
D|--7----7--7--x-----x--10------|--L----------------|


Still I hear Say
Q E E E E Q W
E|---------------------------------|-------------------|
B|---------------------------------|-------------------|
G|---------------------------------|-------------------|
D|--0----0--0--x--x-------8--------|--L----------------|
A|--0----0--0--x--x-------8--------|--L----------------|
D|--0----0--0--x--x-------8--------|--L----------------|


you want to end your life
Q E E E E Q W
E|---------------------------------------|-------------------|
B|---------------------------------------|-------------------|
G|---------------------------------------|-------------------|
D|--7----7--7--x--------x------10--------|--L----------------|
A|--7----7--7--x--------x------10--------|--L----------------|
D|--7----7--7--x--------x------10--------|--L----------------|


Now and again we try
Q E E E E Q W
E|-----------------------------------|-------------------|
B|-----------------------------------|-------------------|
G|-----------------------------------|-------------------|
D|--0----0--0--x-------x--------8----|--L----------------|
A|--0----0--0--x-------x--------8----|--L----------------|
D|--0----0--0--x-------x--------8----|--L----------------|


To just stay alive
Q E E E E Q W
E|--------------------------------------------|-------------------|
B|--------------------------------------------|-------------------|
G|--------------------------------------------|-------------------|
D|--7----7--7--x-------x----------10----------|--L----------------|
A|--7----7--7--x-------x----------10----------|--L----------------|
D|--7----7--7--x-------x----------10----------|--L----------------|


Maybe we'll turn it around
Q E E E E Q W
E|---------------------------------------|-------------------|
B|---------------------------------------|-------------------|
G|---------------------------------------|-------------------|
D|--8-------8------8--x--x------0--------|--L----------------|
A|--8-------8------8--x--x------0--------|--L----------------|
D|--8-------8------8--x--x------0--------|--L----------------|


'Cause it's not too late It's never too+late
Q E E E E Q W
E|-------------------------------------------|-------------------|
B|-------------------------------------------|-------------------|
G|-------------------------------------------|-------------------|
D|--7--------7--7--x----------x--------10----|--L----------------|
A|--7--------7--7--x----------x--------10----|--L----------------|
D|--7--------7--7--x----------x--------10----|--L----------------|


The world we knew Won't come
E E E Q E E E E Q E E E Q H Q Q
E|---------------------------|--------------------------|----------------------|
B|---------------------------|--------------------------|----------------------|
G|---------------------------|--------------------------|----------------------|
D|--8---8--8--8-----8--8--8--|--8--8----8----8--8--8----|--3--------3----10----|
A|--8---8--8--8-----8--8--8--|--8--8----8----8--8--8----|--3--------3----10----|
D|--8---8--8--8-----8--8--8--|--8--8----8----8--8--8----|--3--------3----10----|


back The time we've
Q H Q E E E Q E E E
E|------------------------|-----------------------------|
B|------------------------|-----------------------------|
G|------------------------|-----------------------------|
D|---L----10--------10----|--8---8--8--8----8--8--8-----|
A|---L----10--------10----|--8---8--8--8----8--8--8-----|
D|---L----10--------10----|--8---8--8--8----8--8--8-----|


lost Can't get back
E Q E E E Q H Q Q Q H Q
E|--------------------------|----------------------|------------------------|
B|--------------------------|----------------------|------------------------|
G|--------------------------|----------------------|------------------------|
D|--8--8----8----8--8--8----|--3--------3----10----|---L----10--------10----|
A|--8--8----8----8--8--8----|--3--------3----10----|---L----10--------10----|
D|--8--8----8----8--8--8----|--3--------3----10----|---L----10--------10----|


The life we had Won't be ours
E E E Q E E E E Q E E E Q H Q Q
E|--------------------------|-------------------------|----------------------|
B|--------------------------|-------------------------|----------------------|
G|--------------------------|-------------------------|----------------------|
D|--8---8--8--8----8--8--8--|--8--8----8---8--8--8----|--3--------3----10----|
A|--8---8--8--8----8--8--8--|--8--8----8---8--8--8----|--3--------3----10----|
D|--8---8--8--8----8--8--8--|--8--8----8---8--8--8----|--3--------3----10----|


ag- - - - - - -
Q H Q E E E Q E E E
E|------------------------|-----------------------------------|
B|------------------------|-----------------------------------|
G|------------------------|-----------------------------------|
D|---L----10--------10----|--8------------8--8--8----8--8--8--|
A|---L----10--------10----|--8------------8--8--8----8--8--8--|
D|---L----10--------10----|--8------------8--8--8----8--8--8--|

- - - - - - - ain
E Q E E E Q W W
E|------------------------|-------------------|--------------------|
B|------------------------|-------------------|--------------------|
G|------------------------|-------------------|--------------------|
D|--8--8----8--8--8--8----|--7----------------|--10----------------|
A|--8--8----8--8--8--8----|--7----------------|--10----------------|
D|--8--8----8--8--8--8----|--7----------------|--10----------------|


This world will never be
Q E Q E Q W
E|-------------------------|-------------------|
B|-------------------------|-------------------|
G|-------------------------|-------------------|
D|----------10-------12----|--L----------------|
A|-------8-----------------|-------------------|
D|--8-------------0--------|-------------------|


What I expected
Q E Q E Q W
E|--------------------------------------|-------------------|
B|--------------------------------------|-------------------|
G|--------------------------------------|-------------------|
D|----------------------10-------12-----|--L----------------|
A|-------------8------------------------|-------------------|
D|--8-------------------------0---------|-------------------|


And if I don't belong
^
Q E Q E Q W W W
E|------------------------------|-------------------|-------|-----|
B|------------------------------|-------------------|-------|-----|
G|------------------------------|-------------------|-------|-----|
D|--------------10-------12-----|--L----------------|--10---|--L--|
A|-----------8------------------|-------------------|--10---|--L--|
D|--8-----------------0---------|-------------------|--10---|--L--|


Even if I say
Q E E E E Q W
E|--------------------------------|-------------------|
B|--------------------------------|-------------------|
G|--------------------------------|-------------------|
D|--0----0----0--x--x-------8-----|--L----------------|
A|--0----0----0--x--x-------8-----|--L----------------|
D|--0----0----0--x--x-------8-----|--L----------------|


It'll be alright
Q E E E E Q W
E|------------------------------|-------------------|
B|------------------------------|-------------------|
G|------------------------------|-------------------|
D|--7----7--7--x-----x--10------|--L----------------|
A|--7----7--7--x-----x--10------|--L----------------|
D|--7----7--7--x-----x--10------|--L----------------|


Still I hear Say
Q E E E E Q W
E|---------------------------------|-------------------|
B|---------------------------------|-------------------|
G|---------------------------------|-------------------|
D|--0----0--0--x--x-------8--------|--L----------------|
A|--0----0--0--x--x-------8--------|--L----------------|
D|--0----0--0--x--x-------8--------|--L----------------|


you want to end your life
Q E E E E Q W
E|---------------------------------------|-------------------|
B|---------------------------------------|-------------------|
G|---------------------------------------|-------------------|
D|--7----7--7--x--------x------10--------|--L----------------|
A|--7----7--7--x--------x------10--------|--L----------------|
D|--7----7--7--x--------x------10--------|--L----------------|


Now and again we try
Q E E E E Q W
E|-----------------------------------|-------------------|
B|-----------------------------------|-------------------|
G|-----------------------------------|-------------------|
D|--0----0--0--x-------x--------8----|--L----------------|
A|--0----0--0--x-------x--------8----|--L----------------|
D|--0----0--0--x-------x--------8----|--L----------------|


To just stay alive
Q E E E E Q W
E|--------------------------------------------|-------------------|
B|--------------------------------------------|-------------------|
G|--------------------------------------------|-------------------|
D|--7----7--7--x-------x----------10----------|--L----------------|
A|--7----7--7--x-------x----------10----------|--L----------------|
D|--7----7--7--x-------x----------10----------|--L----------------|


Maybe we'll turn it around
Q E E E E Q W
E|---------------------------------------|-------------------|
B|---------------------------------------|-------------------|
G|---------------------------------------|-------------------|
D|--8-------8------8--x--x------0--------|--L----------------|
A|--8-------8------8--x--x------0--------|--L----------------|
D|--8-------8------8--x--x------0--------|--L----------------|


'Cause it's not too late It's never too+late
Q E E E E Q W
E|-------------------------------------------|-------------------|
B|-------------------------------------------|-------------------|
G|-------------------------------------------|-------------------|
D|--7--------7--7--x----------x--------10----|--L----------------|
A|--7--------7--7--x----------x--------10----|--L----------------|
D|--7--------7--7--x----------x--------10----|--L----------------|


Maybe we'll turn it around
Q E E E E Q W
E|---------------------------------------|-------------------|
B|---------------------------------------|-------------------|
G|---------------------------------------|-------------------|
D|--8-------8------8--x--x------0--------|--L----------------|
A|--8-------8------8--x--x------0--------|--L----------------|
D|--8-------8------8--x--x------0--------|--L----------------|


'Cause it's not too late It's never too+late
Q E E E E Q W
E|-------------------------------------------|-------------------|
B|-------------------------------------------|-------------------|
G|-------------------------------------------|-------------------|
D|--7--------7--7--x----------x--------10----|--L----------------|
A|--7--------7--7--x----------x--------10----|--L----------------|
D|--7--------7--7--x----------x--------10----|--L----------------|


(It's+never too+late) it's+not too+late
Q E E E E Q W
E|------------------------------------------------------|-----|
B|------------------------------------------------------|-----|
G|------------------------------------------------------|-----|
D|--8--------8--8-----------x---------x--------0--------|--L--|
A|--8--------8--8-----------x---------x--------0--------|--L--|
D|--8--------8--8-----------x---------x--------0--------|--L--|


It's+never too+late
Q E E E E Q W
E|-------------------------------------|-----|
B|-------------------------------------|-----|
G|-------------------------------------|-----|
D|--7----------7--------7--x--x--10----|--L--|
A|--7----------7--------7--x--x--10----|--L--|
D|--7----------7--------7--x--x--10----|--L--|


Q E Q E Q Q Q Q E E Q E Q E Q
E|------------------------|------------------------|------------------------|
B|------------------------|------------------------|------------------------|
G|------------------------|------------------------|------------------------|
D|----------10------------|-------10----8----7--0--|----------10------------|
A|-------8--------8-------|--0---------------------|-------8--------8-------|
D|--8----------------0----|------------------------|--8----------------0----|


Q Q Q E E Q E Q E Q Q Q Q E E
E|------------------------|------------------------|------------------------|
B|------------------------|------------------------|------------------------|
G|------------------------|------------------------|------------------------|
D|-------10----8----7--0--|----------10------------|-------10----8----7--0--|
A|--0---------------------|-------8--------8-------|--0---------------------|
D|------------------------|--8----------------0----|------------------------|


Q E Q E Q W W W
E|-------------------------|-----|-----|-----||
B|-------------------------|-----|-----|-----||
G|-------------------------|-----|-----|-----||
D|----------10-------10----|--L--|--L--|--L--||
A|-------7--------7--10----|--L--|--L--|--L--||
D|--7----------------10----|--L--|--L--|--L--||


************************************

| x Dead note

************************************
Tunning: Standard (E A D G B e)
Artist : Three Days Grace
Album : One-X
Song : Never Too Late
Tuning : Drop C
Tab: I.A.
Moderately Q=147
4/4

This tab is for Guitar One Only

Intro
|--------------|------------------| |---------------|
|--------------|------------------| |---------------|
|--------------|------------------| |---------------|
|------10------|--0-10--8--7-0----| |------10---10--|
|----8----8----|------------------| |----7----7-10--|
|-8---------0--|------------------|Rx3 |-7---------10--|
Repeat whole intro

Verse
|--------------|------------------| |---------------|
|--------------|------------------| |---------------|
|--------------|------------------| |---------------|
|------10------|--0-10--8--7-0----| |------10---10--|
|----8----8----|------------------| |----7----7-10--|
|-8---------0--|------------------|Rx3 |-7---------10--|
Repeat Whole Verse

Chorus
||------------------|-----------------------|
||o-----------------|-----------------------|
||------------------|-----------------------|
||---12---12-12--8--|--(8)-8-(8)--8-(8)-8-8-|
||o--12---12-12--8--|--(8)-8-(8)--8-(8)-8-8-|
||---12---12-12--8--|--(8)-8-(8)--8-(8)-8-8-|

|-----------------|------------------------|
|-----------------|------------------------|
|-----------------|------------------------|
|--7----7-7---10--|-(10)-10----10--10-10---|
|--7----7-7---10--|-(10)-10----10--10-10---|
|--7----7-7---10--|-(10)-10----10--10-10---|

Repeat Verse
Repeat Chorus

Chorus Cont.

|-------------------------|----------------------------|
|-------------------------|----------------------------|
|-------------------------|----------------------------|
|--8--8--8--8--------0----|-(0)--0-(0)-----0-(0)--0--0-|
|--8--8--8--8--------0----|-(0)--0-(0)-----0-(0)--0--0-|
|--8--8--8--8--------0----|-(0)--0-(0)-----0-(0)--0--0-|

|-------------------------|---------------------------|
|-------------------------|---------------------------|
|-------------------------|---------------------------|
|--7--7--7--7-------10----|-(10)-10-10-10-10-10-10-10-|
|--7--7--7--7-------10----|-(10)-10-10-10-10-10-10-10-|
|--7--7--7--7-------10----|-(10)-10-10-10-10-10-10-10-|

|-------------|-------------|-----------------|---------|
|-------------|-------------|-----------------|---------|
|-------------|-------------|-----------------|---------|
|-8--8--8--8--|-8--8--8--8--|-7-7-7-7---x-10--|-(10)----|
|-8--8--8--8--|-8--8--8--8--|-7-7-7-7---x-10--|-(10)----|
|-8--8--8--8--|-8--8--8--8--|-7-7-7-7---x-10--|-(10)----|


Guitar Break
Let Ring Let Ring
|--------------------| |------------------|
|--------------------| |------------------|
|--------------------| |------------------|
|------10-------12---| |------10----------|
|----8----8----------| |----7----7--------|
|-8------------------|Rx3 |-7-------------0--|

Repeat Chorus

Outro
Verse Let Fade
|--------------|------------------| |---------------|
|--------------|------------------| |---------------|
|--------------|------------------| |---------------|
|------10------|--0-10--8--7-0----| |------10---10--|
|----8----8----|------------------| |----7----7-10--|
|-8---------0--|------------------|Rx3 |-7---------10--|

-----------------------------------------------------------------------------

Tunning: Standard (E A D G B e)
[Intro and Verse 1] (x3)

[x3] [x1]
e|--------------------------------|-------------------|
B|--------------------------------|-------------------|
G|--------------------------------|-------------------|
D|-------10-----------10--8--7--0-|--------10-----10--|
A|----8------8-----0--------------|-----7------7--10--|
D|-8------------0-----------------|--7------------10--|


[Chorus]

[x3] [x1]
e|----------------------|--------------------|
B|----------------------|--------------------|
G|----------------------|--------------------|
D|--0----8----7----10---|--8-8---0---7---10--|
A|--0----8----7----10---|--8-8---0---7---10--|
D|--0----8----7----10---|--8-8---0---7---10--|


[Verse 2] (x2)

[x3] [x1]
e|--------------------------------|-------------------|
B|--------------------------------|-------------------|
G|--------------------------------|-------------------|
D|-------10-----------10--8--7--0-|--------10-----10--|
A|----8------8-----0--------------|-----7------7--10--|
D|-8------------0-----------------|--7------------10--|


[Chorus]

[x3] [x1]
e|----------------------|--------------------|
B|----------------------|--------------------|
G|----------------------|--------------------|
D|--0----8----7----10---|--8-8---0---7---10--|
A|--0----8----7----10---|--8-8---0---7---10--|
D|--0----8----7----10---|--8-8---0---7---10--|


[Bridge]

[x3] [x8] [x1]
e|----------------------------------------------|------|-------------|
B|----------------------------------------------|------|-------------|
G|----------------------------------------------|------|-------------|
D|--8-8-8-8--8-8-8-8--8-8---3-3-3--10-10-10-10--|--8---|--7---10-----|
A|--8-8-8-8--8-8-8-8--8-8---3-3-3--10-10-10-10--|--8---|--7---10-----|
D|--8-8-8-8--8-8-8-8--8-8---3-3-3--10-10-10-10--|--8---|--7---10-----|

[x3] [x1]
e|-----------------|---------|
B|-----------------|---------|
G|-----------------|---------|
D|--------10-------|----10---|
A|-----8------8----|----10---|
D|--8-----------0--|----10---|


[Chorus]

[x3] [x3]
e|----------------------|------------------|
B|----------------------|------------------|
G|----------------------|------------------|
D|--0----8----7----10---|--8-8--0---7--10--|
A|--0----8----7----10---|--8-8--0---7--10--|
D|--0----8----7----10---|--8-8--0---7--10--|.


[Outro]

[x3] [x1]
e|--------------------------------|-------------------|
B|--------------------------------|-------------------|
G|--------------------------------|-------------------|
D|-------10-----------10--8--7--0-|--------10-----10--|
A|----8------8-----0--------------|-----7------7--10--|
D|-8------------0-----------------|--7------------10--|



**********************************************

This is tabbed correctly, and this
is the only tab i have done so far,
But I'm hoping to do more! If you're
playing the song on electric, then
the chorus should be distorted c:

https://www.youtube.com/watch?v=6qOvNgEsZ9s


**********************************************
Song info
Never Too Late
Three Days Grace
2001
  • Rock
  • Alternative Rock
  • Grunge
Alternative tracks
Similar songs
Dear God - XTC
Whats My Scene - Hoodoo Gurus
Revelations - Audioslave
Everybody Knows That Youre Insane - Queens of the Stone Age
Sick Of Drugs - The Wildhearts

Hi! Hope you enjoy backing track experience.
If you want to help us in the development of the project, feel free to donate!