Ready Set Go - Tokio Hotel
00:00 / 00:00
Tabs and lyrics
Tunning: Standard (E A D G B e)
This song is soooo dope..
I think this tab is pretty acurate..:)

|---------|------------|
|---------|------------|
|-4-----5-|-4-----5----|
|-2--4--5-|-2--4--5----|(strum each chord 3x)
|----2--3-|----2--3----|
|---------|------------|

VERSE:



|---------|------------|------------|------|
|---------|------------|------------|------|
|-2-----5-|-2-----5----|-4-----5----|------|
|-4--4--5-|-4--4--5----|-2--4--5----|-2--3-|
|----2--3-|----2--3----|----2--3----|-2--3-|
|---------|------------|------------|-2--3-|


|---------|------------|------------|------|
|---------|------------|------------|------|
|-2-----5-|-2-----5----|-4-----5----|------|
|-4--4--5-|-4--4--5----|-2--4--5----|-2--3-|
|----2--3-|----2--3----|----2--3----|-2--3-|
|---------|------------|------------|-2--3-|


|-----------|
|-----------|
|-----------|
|-3--5--2-2-|(softly)
|-3--5--2-2-|
|-3--5--2-2-| x2

CHORUS:

(Ready, Set, GO! It's time to run)
|------------|------------|-------------|---------|
|------------|------------|-------------|---------|
|-7--9--5----|-7--9--7--9-|-9-9--5-7--9-|-5--7--4-|
|-7--9--5--5-|-7--9--7--9-|-9-9--5-7--9-|-5--7--4-|
|-5--7--3--5-|-5--7--5--7-|-7-7--3-5--7-|-3--5--2-|
|----------5-|----------0-|-------------|---------|

PRE-VERSE:



|----------|
|-10--7--8-|
|-7---4--5-|
|----------|
|----------|
|----------| x2

VERSE:



|---------|------------|------------|------|
|---------|------------|------------|------|
|-4-----5-|-4-----5----|-4-----5----|------|
|-2--4--5-|-2--4--5----|-2--4--5----|-2--3-|
|----2--3-|----2--3----|----2--3----|-2--3-|
|---------|------------|------------|-2--3-|




|---------|------------|------------|------|
|---------|------------|------------|------|
|-4-----5-|-4-----5----|-4-----5----|------|
|-2--4--5-|-2--4--5----|-2--4--5----|-2--3-|
|----2--3-|----2--3----|----2--3----|-2--3-|
|---------|------------|------------|-2--3-|




|-----------|
|-----------|
|-----------|
|-3--5--2-2-|(softly)
|-3--5--2-2-|
|-3--5--2-2-| x2

CHORUS:

|------------|------------|-------------|---------|
|------------|------------|-------------|---------|
|-7--9--5----|-7--9--7--9-|-9-9--5-7--9-|-5--7--4-|
|-7--9--5--5-|-7--9--7--9-|-9-9--5-7--9-|-5--7--4-|
|-5--7--3--5-|-5--7--5--7-|-7-7--3-5--7-|-3--5--2-|
|----------5-|----------0-|-------------|---------|

Filler:

|--------------------------|
|--------------------------|
|--------------------------|
|-4-4--5-5--7-7--4-4-4-5-5-|
|-2-2--3-3--5-5--2-2-2-3-3-|
|--------------------------| (x6)



|-----------|
|-----------|
|-----------|(softly)
|-3--5--2-2-|
|-3--5--2-2-|
|-3--5--2-2-| (x3)

CHORUS:

|-------|------------|-------------|---------|
|-------|------------|-------------|---------|
|-7-7-7-|-7--9--7--9-|-9-9--5-7--9-|-5--7--4-|
|-7-7-7-|-7--9--7--9-|-9-9--5-7--9-|-5--7--4-|
|-5-5-5-|-5--7--5--7-|-7-7--3-5--7-|-3--5--2-|
|-------|----------0-|-------------|---------|

|------------|------------|-------------|---------|
|------------|------------|-------------|---------|
|-7--9--5----|-7--9--7--9-|-9-9--5-7--9-|-5--7--4-|
|-7--9--5--5-|-7--9--7--9-|-9-9--5-7--9-|-5--7--4-|
|-5--7--3--5-|-5--7--5--7-|-7-7--3-5--7-|-3--5--2-|
|----------5-|----------0-|-------------|---------|

|---------|------------|------------|
|---------|------------|------------|
|-4-----5-|-4-----5----|-4-----5----|
|-2--4--5-|-2--4--5----|-2--4--5----|
|----2--3-|----2--3----|----2--3----|
|---------|------------|------------|(6x)


Outtro:

|---------------|
|-4-4--5-5--7-7-|
|-4-4--5-5--7-7-|
|-4-4--5-5--7-7-|
|-2-2--3-3--5-5-|
|---------------|

hope you like it....
plz comment:P
Tunning: Standard (E A D G B e)
-------------------------------------------------------------------------------
Ready, Set, Go! - Tokio Hotel
-------------------------------------------------------------------------------
Tabbed by: Sean182290
Email: buddysean@gmail.com

Tuning: Drop D


INTRO:
e|-------------------------------|
B|-------------------------------|
G|-4-4-4-------5-5-5-5-5-5-5-5-5-|
D|-2-2-2-4-4-4-5-5-5-5-5-5-5-5-5-|
A|-------2-2-2-3-3-3-3-3-3-3-3-3-|
D|-------------------------------|


e|-------------------------------|
B|-------------------------------|
G|-4-4-4-------5-5-5-5-6-6-6-6-6-|
D|-2-2-2-4-4-4-5-5-5-5-6-6-6-6-6-|
A|-------2-2-2-3-3-3-3-4-4-4-4-4-|
D|-------------------------------|


VERSE: (We were runnin' through the town)
e|-------------------------------|
B|-------------------------------|
G|-4-4-4-------5-5-5-5-5-5-5-5-5-|
D|-2-2-2-4-4-4-5-5-5-5-5-5-5-5-5-|
A|-------2-2-2-3-3-3-3-3-3-3-3-3-|
D|-------------------------------|


e|-------------------------------|
B|-------------------------------|
G|-4-4-4-------5-5-5-5-6-6-6-6-6-|
D|-2-2-2-4-4-4-5-5-5-5-6-6-6-6-6-|
A|-------2-2-2-3-3-3-3-4-4-4-4-4-|
D|-------------------------------|


e|-------------------------------|-------------------------------------|
B|-------------------------------|-------------------------------------|
G|-4-4-4-------5-5-5-5-6-6-6-6-6-|-------------------------------------|
D|-2-2-2-4-4-4-5-5-5-5-6-6-6-6-6-|-2-2-2-2-2-2-2-2-2-3-3-3-3-3-3-3-3-3-|
A|-------2-2-2-3-3-3-3-4-4-4-4-4-|-2-2-2-2-2-2-2-2-2-3-3-3-3-3-3-3-3-3-|
D|-------------------------------|-2-2-2-2-2-2-2-2-2-3-3-3-3-3-3-3-3-3-|


e|-------------------------------|
B|-------------------------------|
G|-4-4-4-------5-5-5-5-5-5-5-5-5-|
D|-2-2-2-4-4-4-5-5-5-5-5-5-5-5-5-|
A|-------2-2-2-3-3-3-3-3-3-3-3-3-|
D|-------------------------------|


e|-------------------------------|
B|-------------------------------|
G|-4-4-4-------5-5-5-5-6-6-6-6-6-|
D|-2-2-2-4-4-4-5-5-5-5-6-6-6-6-6-|
A|-------2-2-2-3-3-3-3-4-4-4-4-4-|
D|-------------------------------|


e|-------------------------------|-------------------------------------|
B|-------------------------------|-------------------------------------|
G|-4-4-4-------5-5-5-5-6-6-6-6-6-|-------------------------------------|
D|-2-2-2-4-4-4-5-5-5-5-6-6-6-6-6-|-2-2-2-2-2-2-2-2-2-3-3-3-3-3-3-3-3-3-|
A|-------2-2-2-3-3-3-3-4-4-4-4-4-|-2-2-2-2-2-2-2-2-2-3-3-3-3-3-3-3-3-3-|
D|-------------------------------|-2-2-2-2-2-2-2-2-2-3-3-3-3-3-3-3-3-3-|


(To young to live a lie)
e|---------------------------------|
B|---------------------------------|
G|---------------------------------|
D|-3-3-3-5-5-5-5-2-2-2-2-2-2-2-2-2-|
A|-3-3-3-5-5-5-5-2-2-2-2-2-2-2-2-2-|
D|-3-3-3-5-5-5-5-2-2-2-2-2-2-2-2-2-| (x2)
x x x x x x x x x x x x x x x x


CHORUS: (Ready, Set, GO! It's time to run)
e|------------|------------|-------------|---------|
B|------------|------------|-------------|---------|
G|-7--9--5----|-7--9--7--9-|-9-9--5-7--9-|-5--7--4-|
D|-7--9--5--7-|-7--9--7--9-|-9-9--5-7--9-|-5--7--4-|
A|-5--7--3--7-|-5--7--5--7-|-7-7--3-5--7-|-3--5--2-|
D|----------5-|----------0-|-------------|---------|

(Together we can make it)
e|------------------------------------------------------------------------------------------------|
B|------------------------------------------------------------------------------------------------|
G|-8-8-8-8-8-8-8-8-8-8-8-8-8-8-8-8-4-4-4-4-4-4-4-4-4-4-4-4-4-4-4-4--------------------------------|
D|-8-8-8-8-8-8-8-8-8-8-8-8-8-8-8-8-4-4-4-4-4-4-4-4-4-4-4-4-4-4-4-4-3-3-3-3-3-3-3-3--4--4--3--3--3-|
A|-6-6-6-6-6-6-6-6-6-6-6-6-6-6-6-6-2-2-2-2-2-2-2-2-2-2-2-2-2-2-2-2-3-3-3-3-3-3-3-3--4--4--3--3--3-|
D|-----------------------------------------------------------------1-1-1-1-1-1-1-1--2--2--1--1--1-|

PRE-VERSE:
e|-------------------------------|
B|-------------------------------|
G|-4-4-4-------5-5-5-5-5-5-5-5-5-|
D|-2-2-2-4-4-4-5-5-5-5-5-5-5-5-5-|
A|-------2-2-2-3-3-3-3-3-3-3-3-3-|
D|-------------------------------|


e|-------------------------------|
B|-------------------------------|
G|-4-4-4-------5-5-5-5-6-6-6-6-6-|
D|-2-2-2-4-4-4-5-5-5-5-6-6-6-6-6-|
A|-------2-2-2-3-3-3-3-4-4-4-4-4-|
D|-------------------------------|


VERSE: (We are looking back again)
e|-------------------------------|
B|-------------------------------|
G|-4-4-4-------5-5-5-5-5-5-5-5-5-|
D|-2-2-2-4-4-4-5-5-5-5-5-5-5-5-5-|
A|-------2-2-2-3-3-3-3-3-3-3-3-3-|
D|-------------------------------|


e|-------------------------------|
B|-------------------------------|
G|-4-4-4-------5-5-5-5-6-6-6-6-6-|
D|-2-2-2-4-4-4-5-5-5-5-6-6-6-6-6-|
A|-------2-2-2-3-3-3-3-4-4-4-4-4-|
D|-------------------------------|


e|-------------------------------|-------------------------------------|
B|-------------------------------|-------------------------------------|
G|-4-4-4-------5-5-5-5-6-6-6-6-6-|-------------------------------------|
D|-2-2-2-4-4-4-5-5-5-5-6-6-6-6-6-|-2-2-2-2-2-2-2-2-2-3-3-3-3-3-3-3-3-3-|
A|-------2-2-2-3-3-3-3-4-4-4-4-4-|-2-2-2-2-2-2-2-2-2-3-3-3-3-3-3-3-3-3-|
D|-------------------------------|-2-2-2-2-2-2-2-2-2-3-3-3-3-3-3-3-3-3-|


e|-------------------------------|
B|-------------------------------|
G|-4-4-4-------5-5-5-5-5-5-5-5-5-|
D|-2-2-2-4-4-4-5-5-5-5-5-5-5-5-5-|
A|-------2-2-2-3-3-3-3-3-3-3-3-3-|
D|-------------------------------|


e|-------------------------------|
B|-------------------------------|
G|-4-4-4-------5-5-5-5-6-6-6-6-6-|
D|-2-2-2-4-4-4-5-5-5-5-6-6-6-6-6-|
A|-------2-2-2-3-3-3-3-4-4-4-4-4-|
D|-------------------------------|


e|-------------------------------|-------------------------------------|
B|-------------------------------|-------------------------------------|
G|-4-4-4-------5-5-5-5-6-6-6-6-6-|-------------------------------------|
D|-2-2-2-4-4-4-5-5-5-5-6-6-6-6-6-|-2-2-2-2-2-2-2-2-2-3-3-3-3-3-3-3-3-3-|
A|-------2-2-2-3-3-3-3-4-4-4-4-4-|-2-2-2-2-2-2-2-2-2-3-3-3-3-3-3-3-3-3-|
D|-------------------------------|-2-2-2-2-2-2-2-2-2-3-3-3-3-3-3-3-3-3-|


(To young to live a lie)
e|---------------------------------|
B|---------------------------------|
G|---------------------------------|
D|-3-3-3-5-5-5-5-2-2-2-2-2-2-2-2-2-|
A|-3-3-3-5-5-5-5-2-2-2-2-2-2-2-2-2-|
D|-3-3-3-5-5-5-5-2-2-2-2-2-2-2-2-2-| (x2)
x x x x x x x x x x x x x x x x


CHORUS: (Ready, set, go! It's time to run)
e|------------|------------|-------------|---------|
B|------------|------------|-------------|---------|
G|-7--9--5----|-7--9--7--9-|-9-9--5-7--9-|-5--7--4-|
D|-7--9--5--5-|-7--9--7--9-|-9-9--5-7--9-|-5--7--4-|
A|-5--7--3--5-|-5--7--5--7-|-7-7--3-5--7-|-3--5--2-|
D|----------5-|----------0-|-------------|---------|

(Together we can make it)
e|------------------------------------------------------------------------------------------------|
B|------------------------------------------------------------------------------------------------|
G|-8-8-8-8-8-8-8-8-8-8-8-8-8-8-8-8-4-4-4-4-4-4-4-4-4-4-4-4-4-4-4-4--------------------------------|
D|-8-8-8-8-8-8-8-8-8-8-8-8-8-8-8-8-4-4-4-4-4-4-4-4-4-4-4-4-4-4-4-4-3-3-3-3-3-3-3-3--4--4--3--3--3-|
A|-6-6-6-6-6-6-6-6-6-6-6-6-6-6-6-6-2-2-2-2-2-2-2-2-2-2-2-2-2-2-2-2-3-3-3-3-3-3-3-3--4--4--3--3--3-|
D|-----------------------------------------------------------------1-1-1-1-1-1-1-1--2--2--1--1--1-|


PRE-CHORUS:
e|--------------------------|
B|--------------------------|
G|--------------------------|
D|-4-4--5-5--7-7--4-4-4-5-5-|
A|-2-2--3-3--5-5--2-2-2-3-3-|
D|--------------------------| (x6)


e|-------------------------------|
B|-------------------------------|
G|-------------------------------|
D|-3-3-3-5-5-5-5-2-2-2-2-2-2-2-2-|
A|-3-3-3-5-5-5-5-2-2-2-2-2-2-2-2-|
D|-3-3-3-5-5-5-5-2-2-2-2-2-2-2-2-| (x3)
x x x x x x x x x x x x x x x


CHORUS: (READY, SET, GO! IT'S TIME TO RUN!) dont play during these words

(The sky is changing)
e|-------|------------|-------------|---------|
B|-------|------------|-------------|---------|
G|-7-7-7-|-7--9--7--9-|-9-9--5-7--9-|-5--7--4-|
D|-7-7-7-|-7--9--7--9-|-9-9--5-7--9-|-5--7--4-|
A|-5-5-5-|-5--7--5--7-|-7-7--3-5--7-|-3--5--2-|
D|-------|----------0-|-------------|---------|


(Together we can make it)
e|------------------------------------------------------------------------------------------------|
B|------------------------------------------------------------------------------------------------|
G|-8-8-8-8-8-8-8-8-8-8-8-8-8-8-8-8-4-4-4-4-4-4-4-4-4-4-4-4-4-4-4-4--------------------------------|
D|-8-8-8-8-8-8-8-8-8-8-8-8-8-8-8-8-4-4-4-4-4-4-4-4-4-4-4-4-4-4-4-4-3-3-3-3-3-3-3-3--4--4--3--3--3-|
A|-6-6-6-6-6-6-6-6-6-6-6-6-6-6-6-6-2-2-2-2-2-2-2-2-2-2-2-2-2-2-2-2-3-3-3-3-3-3-3-3--4--4--3--3--3-|
D|-----------------------------------------------------------------1-1-1-1-1-1-1-1--2--2--1--1--1-|


e|------------|------------|-------------|---------|
B|------------|------------|-------------|---------|
G|-7--9--5----|-7--9--7--9-|-9-9--5-7--9-|-5--7--4-|
D|-7--9--5--5-|-7--9--7--9-|-9-9--5-7--9-|-5--7--4-|
A|-5--7--3--5-|-5--7--5--7-|-7-7--3-5--7-|-3--5--2-|
D|----------5-|----------0-|-------------|---------|


(Together we can make it)
e|------------------------------------------------------------------------------------------------|
B|------------------------------------------------------------------------------------------------|
G|-8-8-8-8-8-8-8-8-8-8-8-8-8-8-8-8-4-4-4-4-4-4-4-4-4-4-4-4-4-4-4-4--------------------------------|
D|-8-8-8-8-8-8-8-8-8-8-8-8-8-8-8-8-4-4-4-4-4-4-4-4-4-4-4-4-4-4-4-4-3-3-3-3-3-3-3-3--4--4--3--3--3~|
A|-6-6-6-6-6-6-6-6-6-6-6-6-6-6-6-6-2-2-2-2-2-2-2-2-2-2-2-2-2-2-2-2-3-3-3-3-3-3-3-3--4--4--3--3--3~|
D|-----------------------------------------------------------------1-1-1-1-1-1-1-1--2--2--1--1--1~|


VERSE:
e|-------------------------------|
B|-------------------------------|
G|-4-4-4-------5-5-5-5-5-5-5-5-5-|
D|-2-2-2-4-4-4-5-5-5-5-5-5-5-5-5-|
A|-------2-2-2-3-3-3-3-3-3-3-3-3-|
D|-------------------------------|


e|-------------------------------|
B|-------------------------------|
G|-4-4-4-------5-5-5-5-6-6-6-6-6-|
D|-2-2-2-4-4-4-5-5-5-5-6-6-6-6-6-|
A|-------2-2-2-3-3-3-3-4-4-4-4-4-|
D|-------------------------------|


e|-------------------------------|
B|-------------------------------|
G|-4-4-4-------5-5-5-5-5-5-5-5-5-|
D|-2-2-2-4-4-4-5-5-5-5-5-5-5-5-5-|
A|-------2-2-2-3-3-3-3-3-3-3-3-3-|
D|-------------------------------|


e|-------------------------------|
B|-------------------------------|
G|-4-4-4-------5-5-5-5-6-6-6-6-6-|
D|-2-2-2-4-4-4-5-5-5-5-6-6-6-6-6-|
A|-------2-2-2-3-3-3-3-4-4-4-4-4-|
D|-------------------------------|


e|-------------------------------|
B|-------------------------------|
G|-4-4-4-------5-5-5-5-5-5-5-5-5-|
D|-2-2-2-4-4-4-5-5-5-5-5-5-5-5-5-|
A|-------2-2-2-3-3-3-3-3-3-3-3-3-|
D|-------------------------------|


Outtro:
e|---------------|
G|-4-4--5-5--7-7~|
B|-4-4--5-5--7-7~|
D|-4-4--5-5--7-7~|
A|-2-2--3-3--5-5~|
D|---------------|


| / slide up
| \ slide down
| h hammer-on
| p pull-off
| ~ vibrato (hold/ride)
| + harmonic
| x Mute note (palm mute)
===============================================================================

Song info
Ready Set Go
Tokio Hotel
2001
  • Pop
  • Rock
  • Pop Rock
Similar songs
The One - Elton John
The Road To Hell - Chris Rea
Whats Up - 4 Non Blondes
Flathead - The Fratellis

Hi! Hope you enjoy backing track experience.
If you want to help us in the development of the project, feel free to donate!