Schism - Tool
00:00 / 00:00
Tabs and lyrics
Tunning: Standard (E A D G B e)
#----------------------------------PLEASE
NOTE--------------------------------#
#This file is the author's own work and represents their interpretation of
the#
#song. You may only use this file for private study, scholarship, or
research.#
#-----------------------------------------------------------------------------
#
#-- File created with Instab - http://www.pconline.com/~smcarey/instab.html
--#
#-----------------------------------------------------------------------------
#

Author/Artist: Tool
Title: Schism
Transcribed by: Kenny Patrick
Email: lonestarstrat2k@aol.com

Drop D Tuning

Intro:
------------------------------------------------------------------------------
------------------------------------------------------------------------------
-3--2--5--7---3--2--5--7------------------------------------------------------
-3--3--5--8---3--3--5--7------------------------------------------------------
-1--0--3--5---1--0--3--5------------------------------------------------------
--------------------------0---------------------------------------------------

Riff #1-Play 20 Times
------------------------------------------------------------------------------
------------------------------------------------------------------------------
------------------------------------------------------------------------------
-------3---2---------3---2---5------------------------------------------------
-0h3h5---------0h3h5----------------------------------------------------------
---------0---0---------0---0---0----------------------------------------------

Riff #2-Guitar #2-Play 4 Times (Palm Muted). Begin at 5th &17th time through
Riff 1
------------------------------------------------------------------------------
------------------------------------------------------------------------------
------------------------------------------------------------------------------
-------3---2----------3---2---5-----------------------------------------------
-0h3h5---0---0--0h3h5---0---0---0---------------------------------------------
------------------------------------------------------------------------------

These chords are played throughout the first verse:
------------------------------------------------------------------------------
-----3------3---8--10---------------------------------------------------------
-----2------2---7--9----------------------------------------------------------
-3-0-0------0---5--7----------------------------------------------------------
------------------------------------------------------------------------------
------------------------------------------------------------------------------

Riff #3-Play 4 Times

------------------------------------------------------------------------------
------------------------------------------------------------------------------
------------------------------------------------------------------------------
---------10---9--------------10---9---12--------------------------------------
-0h10h12----0---0-0--0h10h12----0---0----0------------------------------------
------------------------------------------------------------------------------

Play Riff #1 8 Times
------------------------------------------------------------------------------
------------------------------------------------------------------------------
------------------------------------------------------------------------------
-------3---2---------3---2---5------------------------------------------------
-0h3h5---------0h3h5----------------------------------------------------------
---------0---0---------0---0---0----------------------------------------------

Riff #2 (Palm Muted) is also played 8 Times
------------------------------------------------------------------------------
------------------------------------------------------------------------------
------------------------------------------------------------------------------
-------3---2----------3---2---5-----------------------------------------------
-0h3h5---0---0--0h3h5---0---0---0---------------------------------------------
------------------------------------------------------------------------------

Play Riff #3 4 Times (Leave out last note on 4th time and let the D string
ring)
------------------------------------------------------------------------------
------------------------------------------------------------------------------
------------------------------------------------------------------------------
---------10---9--------------10---9---12--------------------------------------
-0h10h12----0---0-0--0h10h12----0---0----0------------------------------------
------------------------------------------------------------------------------

Play 4 Times
------------------------------------------------------------------------------
------------------------------------------------------------------------------
------------------------------------------------------------------------------
-0-x-x-3-x-x-5-3-x-x-3-5-5----------------------------------------------------
-0-x-x-3-x-x-5-3-x-x-3-5-5-----3----------------------------------------------
-0-x-x-3-x-x-5-3-x-x-3-5-5-3h5------------------------------------------------

Play Once:
------------------------------------------------------------------------------
-----------------------------8~~~~~~------------------------------------------
-----------------------------7~~~~~~------------------------------------------
-------3---2---------3---2---5~~~~~~------------------------------------------
-0h3h5---------0h3h5----------------------------------------------------------
---------0---0---------0---0--------------------------------------------------


Play Riff #1 8 Times
------------------------------------------------------------------------------
------------------------------------------------------------------------------
------------------------------------------------------------------------------
-------3---2---------3---2---5------------------------------------------------
-0h3h5---------0h3h5----------------------------------------------------------
---------0---0---------0---0---0----------------------------------------------

Riff #2 (Palm Muted) is also played 8 Times
------------------------------------------------------------------------------
------------------------------------------------------------------------------
------------------------------------------------------------------------------
-------3---2----------3---2---5-----------------------------------------------
-0h3h5---0---0--0h3h5---0---0---0---------------------------------------------
------------------------------------------------------------------------------


Play Riff #3 4 Times
------------------------------------------------------------------------------
------------------------------------------------------------------------------
------------------------------------------------------------------------------
---------10---9--------------10---9---12--------------------------------------
-0h10h12----0---0-0--0h10h12----0---0----0------------------------------------
------------------------------------------------------------------------------

Play 7 Times
------------------------------------------------------------------------------
------------------------------------------------------------------------------
------------------------------------------------------------------------------
---------10---9---12----------------------------------------------------------
-0h10h12----0---0----0--------------------------------------------------------
------------------------------------------------------------------------------


------------------------------------------------------------------------------
------------------------------------------------------------------------------
------------------------------------------------------------------------------
---------10---9---------------------------------------------------------------
-0h10h12----0---0~~~~~~~~-----------------------------------------------------
------------------------------------------------------------------------------

Interlude (With Delay):

Play 7 Times:
------------------------------------------------------------------------------
------------------------------------------------------------------------------
------------------------------------------------------------------------------
-14-----17-----14-----19-----12-----14-----10-----12---10---12----------------
----0-0----0-0----0-0----0-0----0-0----0-0----0-0----0----0----0--------------
------------------------------------------------------------------------------

Play Once:
------------------------------------------------------------------------------
------------------------------------------------------------------------------
------------------------------------------------------------------------------
-14-----17-----14-----19-----12-----12h14-----10-----12---10---12-------------
----0-0----0-0----0-0----0-0----0-0-------0-0----0-0----0----0----0-----------
------------------------------------------------------------------------------

Played towards end of riff above:
------------------------------------------------------------------------------
------------------------------------------------------------------------------
------------------------------------------------------------------------------
------------------------------------------------------------------------------
-10\7---7---------------------------------------------------------------------
------7-----------------------------------------------------------------------

Play 3 Times:
------------------------------------------------------------------------------
------------------------------------------------------------------------------
------------------------------------------------------------------------------
-14-----17-----14-----19-----12-----14-----10-----12---10---12----------------
----0-0----0-0----0-0----0-0----0-0----0-0----0-0----0----0----0--------------
------------------------------------------------------------------------------


Play Once:
------------------------------------------------------------------------------
------------------------------------------------------------------------------
------------------------------------------------------------------------------
-14-----17-----14-----19-----12-----12h14-----10-----12---10---12-------------
----0-0----0-0----0-0----0-0----0-0-------0-0----0-0----0----0----0-----------
------------------------------------------------------------------------------

Play Once:
------------------------------------------------------------------------------
------------------------------------------------------------------------------
------------------------------------------------------------------------------
-14-----17-----14-----17-----14---14---14---14-17-----14-----17-----14---14---
----0-0----0-0----0-0----0-0----0----0----0-------0-0----0-0----0-0----0------
------------------------------------------------------------------------------

Guitar#2 plays this Once:
------------------------------------------------------------------------------
------------------------------------------------------------------------------
------------------------------------------------------------------------------
------------------------------------------------------------------------------
-------3---2---5--------------------------------------------------------------
-0h5h7---0---0----------------------------------------------------------------


Play Once (1st note comes at same time as last note on riff above):
------------------------------------------------------------------------------
------------------------------------------------------------------------------
------------------------------------------------------------------------------
-14-----17-----14-----17-----14---14---14---14-17-----14-----17-----14---14---
----0-0----0-0----0-0----0-0----0----0----0-------0-0----0-0----0-0----0------
------------------------------------------------------------------------------

Play Twice:
------------------------------------------------------------------------------
------------------------------------------------------------------------------
------------------------------------------------------------------------------
-10-10--5-5--12-12--2~~~~~~~--------------------------------------------------
-8--8---3-3--10-10--0~~~~~~~--------------------------------------------------
------------------------------------------------------------------------------

Play Once:
------------------------------------------------------------------------------
------------------------------------------------------------------------------
------------------------------------------------------------------------------
-10-10--5-5--12-12--0~~~~~~---------------------------------------------------
-8--8---3-3--10-10--0~~~~~~---------------------------------------------------
--------------------0~~~~~~---------------------------------------------------

Play Once:
------------------------------------------------------------------------------
------------------------------------------------------------------------------
------------------------------------------------------------------------------
-7-8-7-7-8-7-7-10-8-8-7-10-10-0--7--------------------------------------------
-5-6-5-5-6-5-5-8--6-6-5-8--8--0--5---5-----0-----3----------------------------
------------------------------0----7---0-5---0-3---3-0------------------------

Play Twice:
------------------------------------------------------------------------------
------------------------------------------------------------------------------
------------------------------------------------------------------------------
-0-7--------------------------------------------------------------------------
-0-5---5-----0-----3----------------------------------------------------------
-0---7---0-5---0-3---3-0------------------------------------------------------


Play Once:
------------------------------------------------------------------------------
------------------------------------------------------------------------------
------------------------------------------------------------------------------
-0-7--------------------------------------------------------------------------
-0-5---5-----0----------------------------------------------------------------
-0---7---0-5---0--------------------------------------------------------------


Play 4 Times (Palm Muted):
------------------------------------------------------------------------------
------------------------------------------------------------------------------
------------------------------------------------------------------------------
-3-0-2-0-0-3-0-2-0-5-0-0------------------------------------------------------
-3-0-2-0-0-3-0-2-0-5-0-0------------------------------------------------------
-3-0-2-0-0-3-0-2-0-5-0-0------------------------------------------------------


Play 4 Times (Guitar #2 is scratching during this):
------------------------------------------------------------------------------
------------------------------------------------------------------------------
------------------------------------------------------------------------------
-3--2---3--2--5---------------------------------------------------------------
-3--2---3--2--5---------------------------------------------------------------
-3--2---3--2--5---------------------------------------------------------------

Play til the End (Palm Muted,The last 2 chord strums are left out at the very
end):
------------------------------------------------------------------------------
------------------------------------------------------------------------------
------------------------------------------------------------------------------
-12-12-0-13-0-10-10-0---------------------------------------------------------
-12-12-0-13-0-10-10-0---------------------------------------------------------
-12-12-0-13-0-10-10-0---------------------------------------------------------





Tunning: Standard (E A D G B e)
Tool - Schism
Drop D Tuning
Low To High - D A D G B E

Intro: (this is bass, but it\\\'s pretty cool chords for guitar)
|-----------------------------------------------------------------------|
|-----------------------------------------------------------------------|
|--3---2---5---7-----3---2---5---7--------------------------------------|
|--3---3---5---8-----3---3---5---7--------------------------------------|
|--x---x---x---x-----x---x---x---x--------------------------------------|
|--0---3---5---8-----0---3---5---8-------0------------------------------|

Bass Riff:
|-----------------------------------------------------------------------|
|-----------------------------------------------------------------------|
|-----------------------------------------------------------------------|
|-----------3-------------3-------5-------------------------------------|
|-----5p3h5-----7---5p3h5-----7-----------------------------------------|
|--0----------0---0---------0---0---------------------------------------|

Riff I: (the first chord sorta fades in with a slow volume swell)
|-----------------------------------------------------------------------|
|------------------------------------------------------3----------------|
|-------------3-3---2-----3---2---5- repeat 4x --------2----------------|
|--0--------0-----0---0-0---0---0---- end with->---0-0-0----------------|
|--0--------------------------------------------------------------------|
|--0--------------------------------------------------------------------|
(all heavily palm muted)

Fill Part: (let these notes ring loud)
|----------------3----------5-------------------------------------------|
|---3--------------3----------3-----------------------------------------|
|-----------------------------------------------------------------------|
|-----0-----------------------------------------------------------------|
|-----------------------------------------------------------------------|
|-----------------------------------------------------------------------|

Main Verse Riff: (this is heavy palm muted thru verses)
|-----------------------------------------------------------------------|
|-----------------------------------------------------------------------|
|-----------5-------------5-------7-------------------------------------|
|-----7p5h7-----9---7p5h7-----9----- repeat ----------------------------|
|---0---------0---0---------0---0---------------------------------------|
|-----------------------------------------------------------------------|

Riff II: (very slight variation on the verse riff, plus no muting)
(only real difference is you hold that one note (A) longer)
|-----------------------------------------------------------------------|
|-----------------------------------------------------------------------|
|-----------5----------------5-------7-- repeat---------------7\\\\--------|
|-----7p5h7-----9------7p5h7-----9------------------end-with------------|
|--0----------0---0~-----------0---0------------------------------------|
|-----------------------------------------------------------------------|

Heavy Chord Part:
|-------------------------------------------------------------------------|
|-------------------------------------------------------------------------|
|-------------------------------------------------------------------------|
|--0-x-x-3-x-x-5-3-x-x-3-5-5----------------------------------------------|
|--0-x-x-3-x-x-5-3-x-x-3-5-5-----3- repeat 3 times------------------------|
|--0-x-x-3-x-x-5-3-x-x-3-5-5-3h5------------------------------------------|

(4th time play this) (play this with upstroke)
|--------------------------------------------------3--------------------|
|--------------------------------------------------3--------------------|
|--------------------------------------------------2--------------------|
|--0-x-x-3-x-x-3h5-3-x-x-3-5-5---------------------0--------------------|
|--0-x-x-3-x-x-3h5-3-x-x-3-5-5-----3------------------------------------|
|--0-x-x-3-x-x-3h5-3-x-x-3-5-5-3h5--------------------------------------|

Right before the Interlude part, the Riff II is played like before, but
the end of it is repeated a bunch right before the Interlude begins.

Interlude: (these are lots of strange effects, like a pitch shifter i think)
(this is a great section, reminds me of Pink Floyd)
|-----------------------------------------------------------------------|
|-----------------------------------------------------------------------|
|-----------------------------------------------------------------------|
|-14-----17-----14-----19-----12-----14-----10-----12---10---12---------|
|----0-0----0-0----0-0----0-0----0-0----0-0----0-0----0----0----0-------|
|-----------------------------------------------------------------------|

Riff III: (right after interlude)
|-----------------------------------------------------------------------|
|-----------------------------------------------------------------------|
|------------------------------------------------------------2----------|
|--14-----17-----14-----17-----14---14-------10----5----12\\\\--2----------| repeat this
|-----0-0----0-0----0-0----0-0----0----0---8-----3---10------0--0-0-----| once
|-----------------------------------------------------------------------|

Riff IV:
|-----------------------------------------------------------------------|
|-----------------------------------------------------------------------|
|----------------------------------------------------------------7--7^--|
|--14-----17-----14-----17-----14---14-------10----5----12---0---7--7^--|
|-----0-0----0-0----0-0----0-0----0----0---8-----3---10------0---5--5^--|
|------------------------------------------------------------0---0------|

|-----------------------------------------------------------------------|
|-----------------------------------------------------------------------|
|--7^-------------------------------------------------------------------|
|--7^---8-8-\\\\--3-3-/--10-10-\\\\---0---------------------------------------|
|--5^---8-8-\\\\--3-3-/--10-10-\\\\---0---------------------------------------|
|--0----8-8-\\\\--3-3-/--10-10-\\\\---0---------------------------------------|

Riff V: (the timing here and at the end of the riff above is kind of tough)
|-----------------------------------------------------------------------|
|-----------------------------------------------------------------------|
|-----------------------------------------------------------------------|
|--0--0--7-----0-----------5-/-10---------------------------------------|
|--0--0--5---0-------0-----3-/-8----------------------------------------|
|--0--0----------0-5---0-3----------------------------------------------|

Riff VI:
|-----------------------------------------------------------------------|
|-----------------------------------------------------------------------|
|-----------------------------------------------------------------------|
|-----------------------------------------------------------------------|
|-----------------------------------------------------------------------|
|-0-0-3-0-2-0-0-3-0-2-0-5-----------------------------------------------|

Riff VII: (sortof mute all this part, accent the fretted notes, do some
scratching I think, not really sure here)
|-----------------------------------------------------------------------|
|-----------------------------------------------------------------------|
|-----------------------------------------------------------------------|
|-----------------------------------------------------------------------|
|---8--7------8---7----10-----------------------------------------------|
|---0--0------0---0----0------------------------------------------------|

The End Riff: (I hit that 6 with my pinkie)
|-----------------------------------------------------------------------|
|-----------------------------------------------------------------------|
|-----------------------------------------------------------------------|
|------------0----------------------------------------------------------|
|-------------------------6--------3------------------------------------|
|--0---0h3h5----0---0h3h5----0h3h5--------------------------------------|

tabbed by zipztabs.com
Enjoy!


Tunning: Standard (E A D G B e)
Song: Schism
Artist: Tool

Dropped D tunning

e----------------------------------------------
b----------------------------------------------
g--3----2----5----7------3----2----5----7------
d--0----3----5----8------0----3----5----7------
a----------------------------------------------
D-(0)--(3)--(5)--(8)----(0)--(3)--(5)--(8)-----

guitar enters with volume swell
e------------------
b------------------
g------------------
d------------------
a-0----------------
D-0----------------

e--------------------------------------
b--------------------------------------
g---------3---2---------3---2---5------
d---0h3h5---------0h3h5----------------
a-0---------0---0---------0---0--------
D--------------------------------------


let ring
e-------------------------------
b-----3-------------------------
g-(5)-2-------------------------
d-----0-------------------------
a-------------------------------
D--0----------------------------

e------------------3--------5----
b---3-----------------3--------3-
g--------------------------------
d------0-------------------------
a--------------------------------
D---------0-0--------------------

palm mute
e-----------------------------------------
b-----------------------------------------
g-----------------------------------------
d-----------10---9-----------10---9---12--
a-0-0h10h12----0---0-0h10h12----0---0-----
D-----------------------------------------

not palm muted
e-------------------------------------------
b-------------------------------------------
g-------------------------------------------
d-----------10---9-------------10---9---12--
a-0-0h10h12----0---0-0-0h10h12----0---0-----
D-------------------------------------------

palm mute
e----------------------------------------
b----------------------------------------
g---------5---4-----------5---4---7------
d-0-0h5h7---0---0---0h5h7---0---0--------
a----------------------------------------
D----------------------------------------

not palm muted
e-------------------------------------------
b-------------------------------------------
g-------------------------------------------
d-----------10---9-------------10---9---12--
a-0-0h10h12----0---0-0-0h10h12----0---0-----
D-------------------------------------------

e-------------------------------------------
b-------------------------------------------
g-------------------------------------------
d-----------10---9-------------10---9--*12\-
a-0-0h10h12----0---0-0-0h10h12----0---0-----
D-------------------------------------------
*=pinch harmonic

e----------------------------------------
b----------------------------------------
g----------------------------------------
d-0-xx-3-xx-(3)h5--3-x-3-55--------------
a-0-xx-3-xx-(3)h5--3-x-3-55-------3------
D-0-xx-3-xx-(3)h5--3-x-3-55-0h3h5--------

let ring
e-------------
b--12---------
g--12---------
d--12---------
a-------------
D-------------

palm mute
e------------------------------------------
b------------------------------------------
g------------------------------------------
d-----------10---9------------10---9---12--
a-0-0h10h12----0---0--0h10h12----0---0-----
D------------------------------------------


every other time (still palm mute)
e------------------------------------------
b------------------------------------------
g------------------------------------------
d-----------9---7------------9---7---10----
a-0-0h10h12---0---0--0h10h12---0---0-------
D------------------------------------------


not palm muted
e-------------------------------------------
b-------------------------------------------
g-------------------------------------------
d-----------10---9-------------10---9---12--
a-0-0h10h12----0---0-0-0h10h12----0---0-----
D-------------------------------------------

repeat
e------------------------
b------------------------
g------------------------
d---------10---9---12----
a-0h10h12----0---0----0--
D------------------------

with delay (palm mute the open A)
e----------------------------------------------------------------
b----------------------------------------------------------------
g----------------------------------------------------------------
d-14-----17-----14-----19-----12-----14-----10----12---10---12---
a----0-0----0-0----0-0----0-0----0-0----0-0---0-0----0----0----0-
D----------------------------------------------------------------

occasionally
e----------------------------------------------------------------
b----------------------------------------------------------------
g----------------------------------------------------------------
d-14-----17-----14-----19-----12-----12h14----10-----12---10---12-
a----0-0----0-0----0-0----0-0----0-0-------0-----0-0----0----0----0-
D----------------------------------------------------------------

this part is messed up timing
e----------------------------------------
b----------------------------------------
g----------------------------------------
d-14------17-----14-----17-----14---14--- x2
a----0-0-----0-0----0-0----0-0----0----0-
D----------------------------------------
fill
e------------------
b------------------
g------------------
d---------10---9---
a-0h10h12----0---0-
D------------------

e----------------------------------------
b----------------------------------------
g----------------------------------------
d-14------17-----14-----17-----14---14--- x2
a----0-0-----0-0----0-0----0-0----0----0-
D----------------------------------------

e----------------------------
b----------------------------
g----------------------------
d---10----5------12\---2-----
a-8-----3-----10-------0-0-0-
D----------------------------

e----------------------------------------
b----------------------------------------
g----------------------------------------
d-14------17-----14-----17-----14---14---
a----0-0-----0-0----0-0----0-0----0----0-
D----------------------------------------

e----------------------------
b----------------------------
g----------------------------
d---10----5------12\---2-----
a-8-----3-----10-------0-0-0-
D----------------------------

e----------------------------------------
b----------------------------------------
g----------------------------------------
d-14------17-----14-----17-----14---14---
a----0-0-----0-0----0-0----0-0----0----0-
D----------------------------------------

e--------------------------------------
b--------------------------------------
g--------------------------------------
d---10-------5-----12\-----------0-----
a-8-----0--3----10---------------------
D----------------------0---0---------0-

e----------------------
b----------------------
g-7--7--8--7--7--8--7--
d-7--7--8--7--7--8--7--
a-5--5--6--5--5--6--5--
D----------------------

e------------------------------
b------------------------------
g------------------------------
d-10--8-10\-5-3-5/-10-10-12-0--
a--8--8--8\-3-3-3/-10-10-12-0--
D--8--8--8\-3-3-3/-10-10-12-0--

e---|---------------------------
b---|---------------------------
g---|---------------------------
d-0-|------0--------------------
a-0-|-5--0-------0-----3/10-----
D-0-|--------0-5---0-3--/10-0-0-

last time (start palm muting at the 3)
e--------------------------------------------------
b--------------------------------------------------
g--------------------------------------------------
d-0-------0----------------------------------------
a-0--5--0-------0---3--0--2--0--0--3--0--2--0--5---
D-0---------0-5---0-3--0--2--0--0--3--0--2--0--5---

palm mute
e--------------------------------------
b--------------------------------------
g--------------------------------------
d--------------------------------------
a-0--0--3--0--2--0--0--3--0--2--0--5---
D-0--0--3--0--2--0--0--3--0--2--0--5---

only palm mute the ‘0’
e------|------------------------------
b------|-6----5------6----5----8------
g------|-5----4------5----4----7------
d------|-3----2------3----2----5------
a-0000-|-3-00-2-0000-3-00-2-00-5-0000-
D-0000-|-3-00-2-0000-3-00-2-00-5-0000-

e------------------------------
b------------------------------
g------------------------------
d------------------------------
a---------5---------6-------3--
D-0-0h3h5---0-0h3h5---0h3h5----
Tunning: Standard (E A D G B e)
Drop D

PM - palm mute
X - mute string
* - let ring
h - hammer-on
p - pull-off
[#] - harmonic
\ - slide down
/ - slide up

Intro (bass arranged for guitar)


repeat a few times
e|--------------------| |--------------------------------------|
B|--------------------| |--------------------------------------|
G|-3-2-5-7--3-2-5-7---| |--------------------------------------|
D|-X-3-5-8--X-3-5-7---| |--------------------------------------|
A|-5-X-X-X--5-X-X-X---| |---------8---7-----------8---7---10---|
D|-0-3-5-8--0-3-5-8-0-| |-0h10h12---0---0-0h10h12---0---0----0-|


Guitar (fading in)


e|---|
B|---|
G|---|
D|-0-|
A|-0-|
D|-0-|


Riff 1


e|-------------------------------|
B|-------------------------------|
G|-------3---2---------3---2---5-| 3x
D|-0h3h5---0---0-0h3h5---0---0---|
A|-------------------------------|
D|-------------------------------|
PM _____________________________


e|-----------------------------------|
B|---------------------------------3-|
G|-------3---2-------3---2---5-----2-|
D|-0h3h5---0---0h3h5---0---0---0---0-|
A|-----------------------------------|
D|-------------------------------0---|
PM _____________________ *


Verse 1 fills


e|---------3-----5---|
B|-3---------3-----3-|
G|-------------------|
D|---0---------------|
A|-------------------|
D|-----0-------------|


Riff 2


e|----------------------------------------|
B|----------------------------------------|
G|----------------------------------------|
D|---------10---9-----------10---9---12---|
A|-0h10h12----0---0-0h10h12----0---0----0-|
D|----------------------------------------|
PM ______________________________________


Riff 3 (same as Riff 2, but not palm muted)


Verse 2


e|-------------------------------|
B|-------------------------------|
G|-------5---4---------5---4---7-|
D|-0h5h7---0---0-0h5h7---0---0---|
A|-------------------------------|
D|-------------------------------|
PM _____________________________


Riff 4


e|--------------------------------|
B|--------------------------------|
G|--------------------------------| 3x
D|-0-XX-3-XX-5-3-XX-3-5-5---------|
A|-0-XX-3-XX-5-3-XX-3-5-5-------3-|
D|-0-XX-3-XX-5-3-XX-3-5-5-0h3h5---|

e|------------------------------------------|
B|-------------------------------------[12]-|
G|-------------------------------------[12]-|
D|-0-XX-3-XX-3h5p3-XX-3-5-5------------[12]-|
A|-0-XX-3-XX-3h5p3-XX-3-5-5-------3---------|
D|-0-XX-3-XX-3h5p3-XX-3-5-5-0h3h5-----------|
*


Verse 3


e|----------------------------------------
B|----------------------------------------
G|----------------------------------------
D|---------10---9-----------10---9---12---
A|-0h10h12----0---0-0h10h12----0---0----0-
D|----------------------------------------
PM ______________________________________


--------------------------------------|
--------------------------------------|
--------------------------------------|
---------9---7-----------9---7---10---|
-0h10h12---0---0-0h10h12---0---0----0-|
--------------------------------------|
PM _______________________________
Riff 5


e|-----------------------|
B|-----------------------|
G|-----------------------| (let open A ring the last time)
D|---------10---9---12---|
A|-0h10h12----0---0----0-|
D|-----------------------|


Riff 6


e|------------------------------------
B|------------------------------------
G|------------------------------------ ___________
D|-14---14--17---17-14---14--19---19-- \
A|----0--0-----0--0----0--0-----0--0-- \
D|------------------------------------ \
PM _________________________________ \
12x
-----------------------------------------| /
-----------------------------------------| /
-----------------------------------------| /
12---12--14---14-10---10--12---10---12---|/
---0--0-----0--0----0--0-----0--0-0----0-|
-----------------------------------------|
PM ________________________________________




e|---------------------------------------------
B|---------------------------------------------
G|---------------------------------------------
D|-14---14--17---17-14---14--17---17-14---14---
A|----0--0-----0--0----0--0-----0--0----0----0-
D|---------------------------------------------
PM ____________________________________________


e|------------------------------------------------------------|
B|------------------------------------------------------------|
G|------------------------------------------------------------|
D|-14---14--17---17-14---14--17---17-14---14---------10---9---|
A|----0--0-----0--0----0--0-----0--0----0----0h10h12----0---0-|
D|------------------------------------------------------------|
PM ____________________________________________


e|----------------------------------------------|
B|----------------------------------------------|
G|----------------------------------------------| 2x
D|-14---14--17---17-14---14--17---17--14---14---|
A|----0--0-----0--0----0--0-----0--0-----0----0-|
D|----------------------------------------------|


Riff 7


e|------------------------------------------------------|
B|------------------------------------------------------|
G|--------------------9-----12-----9-----12-----9-------| 2x
D|---10\--5/---12-7---X-----XX-----X-----XX-----X-------|
A|-8---\3--/10----7---7-0-0-10-0-0-7-0-0-10-0-0-7-0-0-0-|
D|----------------7-------------------------------------|


e|-----------------------------------
B|-----------------------------------
G|-----------------------------------
D|---10\--5/---12-----7-7-8-7-7-8-7--
A|-8---\3--/10--------5-5-6-5-5-6-5--
D|----------------0------------------


-----------------------------------------|
-----------------------------------------|
--------------5-5------------------------|
10-8-10-5-3-5-5-5-0------0-------------5-|
-8-8--8-3-3-3-3-3-0--5-0-------0-----3-3-|
-8-8--8-3-3-3-----0--------0-5---0-3-----|


e|-------------------------| |-------------------|
B|-------------------------| |-------------------|
G|-------------------------| 2x |-------------------|
D|---------0-------------5-| then |---------0---------|
A|-----5-0-------0-----3-3-| |-----5-0-------0---|
D|-0-0-------0-5---0-3-----| |-0-0-------0-5---0-| into riff 8...



Riff 8


e|-------------------------|
B|-------------------------|
G|-------------------------|
D|-------------------------|
A|-------------------------|
D|-3-0-2-0-0-3-0-2-0-5-0-0-|
PM _________________________
Riff 9


e|------------------------------|
B|------------------------------|
G|------------------------------|
D|-3-XX-2-XXXX-3-XX-2-XX-5-XXXX-|
A|-3-XX-2-XXXX-3-XX-2-XX-5-XXXX-|
D|-3-XX-2-XXXX-3-XX-2-XX-5-XXXX-|


Riff 10


e|-----------------------------|
B|-----------------------------|
G|-----------------------------|
D|-----------------------------|
A|---------5---------6-5h6p5-3-|
D|-0-0h3h5---0-0h3h5-----------|
PM ___________________________

tabbed by drew j
Tunning: Standard (E A D G B e)
[Intro]

e|------------| e|------------------------|
B|------------| B|------------------------|
G|-3--2--5--7-|x2 G|------3-2-------3-2-5---|x4
D|-0--3--5--8-| D|---3h5-0-0---3h5-0-0-0--|
A|------------| A|------------------------|
D|------------| D|------------------------|
PM-------------------PM

(listen to song to know when to play notes)
e|----------------3----------5-------------------|
B|---3--------------3----------3-----------------|
G|-----------------------------------------------|x1
D|-----0-----------------------------------------|
A|-----------------------------------------------|
D|-----------------------------------------------|

e|------------------------|
B|------------------------|
G|------5-4-------5-4-7---|
D|---5h7-------5h7--------|x4
A|-------0-0-------0-0-0--|
D|------------------------|
PM-------------------PM


[Interlude #1]

e|------------------------------|
B|------------------------------|
G|------------------------------|
D|--------10-9---------10-9-12--|x4
A|---10h12--0-0—--10h12--0-0--0-|
D|------------------------------|

e|------------------------|
B|------------------------|
G|------5-4-------5-4-7---|
D|---5h7-------5h7--------|x8
A|-------0-0---------0-0--|
D|------------------------|
PM-------------------PM


[Interlude #2]

e|------------------------------|
B|------------------------------|
G|------------------------------|
D|--------10-9---------10-9-12--|x4
A|---10h12--0-0—--10h12--0-0--0-|
D|------------------------------|

e|--------------------------------|
B|--------------------------------|
G|--------------------------------|
D|-0-x-x-3-x-x-5-3-x-x-3-5-5------|
A|-0-x-x-3-x-x-5-3-x-x-3-5-5----5-|
D|-0-x-x-3-x-x-5-3-x-x-3-5-5—3h5--|x4

e|------------------------|
B|------------------------|
G|------5-4-------5-4-7---|
D|---5h7-------5h7--------|x8
A|-------0-0-------0-0-0--|
D|------------------------|
PM-------------------PM


[Interlude #3]

**do same as first interlude 4x then do this
end part whole lots of times until
interlude 4

e|--------------------|
B|--------------------|
G|--------------------|
D|-----------10-9-12--|
A|---—--10h12--0-0--0-|
D|--------------------|


[Interlude #4]

e|-------------------------------------------------|
B|-------------------------------------------------|
G|-------------------------------------------------|
D|-14----17---14---19---12---14---10---12--10--12--|
A|---0-0---0-0--0-0--0-0--0-0--0-0--0-0--0---0---0-|
D|-------------------------------------------------| (PM all notes on A sting)

At end of interlude #4 play this while slowly going from
e|----------------------------------|PM to open strings
B|----------------------------------|
G|----------------------------------|
D|-14----17-----14----17----14--14--|
A|---0-0----0-0---0-0---0-0---0---0-|
D|----------------------------------|

e|-----------------------------------------------------|
B|-----------------------------------------------------|
G|-------------------9-----12-----9-----12-----9---9---|
D|-10---5----7---7---x------x-----x------x-----x---x---|x3
A|---8---3--5----7---7-0-0-10-0-0-7-0-0-10-0-0-7-0-7-0-|
D|---------------7-------------------------------------|

e|--------------------|
B|--------------------|
G|--------------------|
D|-10--5----7--5------|x1
A|---8--3--5---5------|
D|-------------5------|

e|----------------------------------------|
B|----------------------------------------|
G|----------------------------------------|
D|-7/8\7-7/8\7--10-8-10--5-3-5--5-5-----0-|x1
A|-7/8\7-7/8\7---8-8-8---3-3-3--3-3-------|
D|-7/8\7-7/8\7---8-8-8---3-3-3------0-0---|

e|------------------------|
B|------------------------|
G|--------------------7---|
D|---0----------------7---|x3
A|--0-----0----3------5---|
D|-----0-5--0-3--0-0------|

e|------------|
B|------------|
G|------------|
D|---0--------|x1
A|--0-----0---|
D|-----0-5-0--|

e|-----------------------------------|
B|-----------------------------------|
G|-----------------------------------|
D|-3-0-2-0-0-3-0-2-0-5-0-0-----------|x4
A|-3-0-2-0-0-3-0-2-0-5-0-0-----------|
D|-3-0-2-0-0-3-0-2-0-5-0-0-----------|
PM-----------------------PM

e|----------------------------------------------|x4
B|----------------------------------------------|
G|----------------------------------------------|
D|x-x-x-x-3-x-x-2-x-x-x-x-3-x-x-2-x-x-5-x-x-x-x-|
A|x-x-x-x-3-x-x-2-x-x-x-x-3-x-x-2-x-x-5-x-x-x-x-|
D|x-x-x-x-3-x-x-2-x-x-x-x-3-x-x-2-x-x-5-x-x-x-x-|

**hold last chord on the last time through this part

e|------------------------------|
B|------------------------------|repeat this till end of song.
G|------------------------------|
D|------------------------------|*lots of distortion here
A|----------5---------6-------3-|
D|--0-0h3h5---0-0h3h5---0h3h5---|
PM-----------------------------PM
**(lightly PMed)


***********************************
| / Slide up
| \ Slide down
| h Hammer-on
|PM Palm mute
| x Dead note
***********************************
Tunning: Drop D (D A D G B E)
Tab By, Bobby, aka Jack Handy Jr, aka Shrooms1999
Tool. Schism - Lateralus
1. Intro
E||-----------------------------------------------------|
B||-----------------------------------------------------|
G||-----3-------2-------5-------7-----------------------|
D||-----0-------3-------5-------8-----------------------|
A||-----------------------------------------------------|
D||-----------------------------------------------------|

E||-----------------------------------------------------|
B||-----------------------------------------------------|
G||-----3-------2-------5-------7-----------------------|
D||-----0-------3-------5-------7-----------------------|
A||-----------------------------------------------------|
D||-----------------------------------------------------|

2. Main Rhythm 1 (Bass) Repeat 4 times
Triplet/hammer on
E||-----------------------------------------------------|
B||-----------------------------------------------------|
G||----------------------------10------9----------------|
D||-----0-----/0---10---12\--------0-------0------------|
A||-----------------------------------------------------|
D||-----------------------------------------------------|
Triplet
E||-----------------------------------------------------|
B||-----------------------------------------------------|
G||-----------------------10------9-------12------------|
D||-----/0----10---12\--------0-------0-----------------|
A||-----------------------------------------------------|
D||-----------------------------------------------------|

Main Rhythm 1 Bass/Guitar - Feed-back build up while M.R1
Guitar/ with distortion - Build up (Feed back)
Last during the main rhythm, repeating 4 times.
E||-----------------------------------------------------|
B||-----------------------------------------------------|
G||-----------------------------------------------------|
D||--0----------0--------0---------0--------0-----------|
A||--0----------0--------0---------0--------0-----------|
D||--0----------0--------0---------0--------0-----------|


3. Guitar Comes in Palm muting Rhythm 1 - 4 times
Triplet
E||-----------------------------------------------------|
B||-----------------------------------------------------|
G||------------------3-------2--------------------------|
D||---/0---3---5\--------0-------0----------------------|
A||-----------------------------------------------------|
D||-----------------------------------------------------|
Triplet
E||-----------------------------------------------------|
B||-----------------------------------------------------|
G||------------------3-------2-------5------------------|
D||---/0---3---5\--------0-------0-------0--------------|
A||-----------------------------------------------------|
D||-----------------------------------------------------|


E||-----------------------------------------------------|
B||-----------------------------------------------------|
G||-----------------------------------------------------|
D||-----------------------------------------------------|
A||-----------------------------------------------------|
D||-----------------------------------------------------|


4. Main Rhythm 1 (Bass) Repeat 4 times / Fills come in
Lyrics Start
I know
Triplet
E||-----------------------------------------------------|
B||-----------------------------------------------------|
G||----------------------------10------9----------------|
D||-----0-----/0---10---12\--------0-------0------------|
A||-----------------------------------------------------|
D||-----------------------------------------------------|
The pieces fit...
Triplet
E||-----------------------------------------------------|
B||-----------------------------------------------------|
G||-----------------------10------9-------12------------|
D||-----/0----10---12\--------0-------0-----------------|
A||-----------------------------------------------------|
D||-----------------------------------------------------|

4. Guitar Fill. While main bass rhythm plays.
Let this ring for the duration of 4x repeats of Rhythm 1
E||-----------------------------------------------------|
B||-----------------------------------------------------|
G||----7*---------(7)------------(7)------------(7)-----|
D||-----------------------------------------------------|
A||-----------------------------------------------------|
D||-----------------------------------------------------|

Pure Intention Juxtaposed will...
Let this ring for the duration of 2x repeats of Rhythm 1
E||-----------------------------------------------------|
B||-----------------------------------------------------|
G||--7--------------------------------------------------|
D||------0----------------------------------------------|
A||-----------5-----------------------------------------|
D||---------------0------(0)--------(0)-----(0)---------|

Integrating as it goes. Testing our, Communication
This will last 2x repeats of Rhythm 1
E||-----------------------------------------------------|
B||--8--------------------------10----------------------|
G||------7---------------------------7------------------|
D||-----------0--------------------------0----(0)---0*--|
A||-----------------------------------------------------|
D||---------------0---(0)-(0)---------------------------|

5. Rhythm 1. guitar Palm Muted 4x Times
Triplet
E||-----------------------------------------------------|
B||-----------------------------------------------------|
G||-----------------------------------------------------|
D||---------------10-------9----------------------------|
A||-/0--10--12\--------0--------0-----------------------|
D||-----------------------------------------------------|
Triplet
E||-----------------------------------------------------|
B||-----------------------------------------------------|
G||-----------------------------------------------------|
D||---------------10-------9--------12------------------|
A||-/0--10--12\--------0--------0--------0--------------|
D||-----------------------------------------------------|

6. Rhythm 2. Guitar (slower) 4x times
Triplet
E||-----------------------------------------------------|
B||-----------------------------------------------------|
G||-----------------------------------------------------|
D||---------------10-------9----------------------------|
A||-/0--10--12\--------0--------0-----------------------|
D||-----------------------------------------------------|
Triplet
E||-----------------------------------------------------|
B||-----------------------------------------------------|
G||-----------------------------------------------------|
D||---------------10-------9--------12------------------|
A||-/0--10--12\--------0--------0--------0--------------|
D||-----------------------------------------------------|
7.
Rhythm 1. Palm Muted 8x Times
Triplet
E||-----------------------------------------------------|
B||-----------------------------------------------------|
G||-----------------------------------------------------|
D||---/0---5---7\-----5--------4------------------------|
A||-----------------------0--------0--------------------|
D||-----------------------------------------------------|

E||-----------------------------------------------------|
B||-----------------------------------------------------|
G||-----------------------------------------------------|
D||---/0---5---7\-----5--------4--------7---------------|
A||-----------------------0--------0--------0-----------|
D||-----------------------------------------------------|

8. Rhythm 2. 4x Times (slow)
Triplet
E||-----------------------------------------------------|
B||-----------------------------------------------------|
G||-----------------------------------------------------|
D||---------------10-------9----------------------------|
A||-/0--10--12\--------0--------0-----------------------|
D||-----------------------------------------------------|
Triplet
E||-----------------------------------------------------|
B||-----------------------------------------------------|
G||-----------------------------------------------------|
D||---------------10-------9--------12------------------|
A||-/0--10--12\--------0--------0--------0--------------|
D||-----------------------------------------------------|

9. Break down. Repeat 3x Times
Figure 1. Triplet
E||-----------------------------------------------------|
B||-----------------------------------------------------|
G||-----------------------------------------------------|
D||-----------------------------------------------------|
A||--0--x--x---3--x--x--5-3---x--x---3---5--5----------3|
D||--0--x--x---3--x--x--5-3---x--x---3---5--5-/0h3h5\---|

9. End of Break down. 1x times
Figure 2. Triplet
E||-----------------------------------------------------|
B||-----------------------------------------------------|
G||-----------------------------------------------------|
D||-----------------------------------------------------|
A||--0--x--x---3--x--x---3-h-5--3--x--x--3--5-5--------3|
D||--0--x--x---3--x--x---3-h-5--3--x--x--3--5-5-/0-3-5\-|

10. Main Rhythm 1 (Bass) 1x times
Triplet
E||-----------------------------------------------------|
B||-----------------------------------------------------|
G||----------------------------10------9----------------|
D||-----0-----/0---10---12\--------0-------0------------|
A||-----------------------------------------------------|
D||-----------------------------------------------------|
Triplet
E||-----------------------------------------------------|
B||-----------------------------------------------------|
G||-----------------------10------9-------12------------|
D||-----/0----10---12\--------0-------0-----------------|
A||-----------------------------------------------------|
D||-----------------------------------------------------|

11. Guitar Fill Right after (Bass) 1x times
E||-----------------------------------------------------|
B||-----------------------------------------------------|
G||--12----(12)-----(12)----(12)----(12)----------------|
D||--12----(12)-----(12)----(12)----(12)----------------|
A||--10----(10)-----(10)----(10)----(10)----------------|
D||-----------------------------------------------------|

12. Rhythm 1. Palm Muted 8x Times
Triplet
E||-----------------------------------------------------|
B||-----------------------------------------------------|
G||-----------------------------------------------------|
D||---/0---5---7\-----5--------4------------------------|
A||-----------------------0--------0--------------------|
D||-----------------------------------------------------|

E||-----------------------------------------------------|
B||-----------------------------------------------------|
G||-----------------------------------------------------|
D||---/0---5---7\-----5--------4--------7---------------|
A||-----------------------0--------0--------0-----------|
D||-----------------------------------------------------|

13. Rhythm 2. 4x Times (slow)
Triplet
E||-----------------------------------------------------|
B||-----------------------------------------------------|
G||-----------------------------------------------------|
D||---------------10-------9----------------------------|
A||-/0--10--12\--------0--------0-----------------------|
D||-----------------------------------------------------|
Triplet\hammer on
E||-----------------------------------------------------|
B||-----------------------------------------------------|
G||-----------------------------------------------------|
D||---------------10-------9--------12------------------|
A||-/0--10--12\--------0--------0--------0--------------|
D||-----------------------------------------------------|

14. Rhythm 3. 8x times
E||-----------------------------------------------------|
B||-----------------------------------------------------|
G||-----------------------------------------------------|
D||---------------10-------9--------12------------------|
A||-/0--10--12\--------0--------0--------0--------------|
D||-----------------------------------------------------|

15. Interlude Rhythm A. Palm Mute. 4x Times.

E||-----------------------------------------------------|
B||-----------------------------------------------------|
G||-----------------------------------------------------|
D||---14--------17---------14---------19--------12------|
A||------0--0-------0--0-------0--0-------0--0------0--0|
D||-----------------------------------------------------|

E||-----------------------------------------------------|
B||-----------------------------------------------------|
G||-----------------------------------------------------|
D||---14--------10---------12------10------12-----------|
A||------0--0-------0--0-------0-------0-------0--------|
D||-----------------------------------------------------|

16. Interlude Rhythm B. 4x Times.

E||-----------------------------------------------------|
B||-----------------------------------------------------|
G||-----------------------------------------------------|
D||---14--------17---------14---------19--------12------|
A||------0--0-------0--0-------0--0-------0--0------0--0|
D||-----------------------------------------------------|

E||-----------------------------------------------------|
B||-----------------------------------------------------|
G||-----------------------------------------------------|
D||---14--------10---------12------10------12-----------|
A||------0--0-------0--0-------0-------0-------0--------|
D||-----------------------------------------------------|

17. Interlude Rhythm A. 6x times. Palm Mute

E||-----------------------------------------------------|
B||-----------------------------------------------------|
G||-----------------------------------------------------|
D||---14--------17---------14---------19--------12------|
A||------0--0-------0--0-------0--0-------0--0------0--0|
D||-----------------------------------------------------|

E||-----------------------------------------------------|
B||-----------------------------------------------------|
G||-----------------------------------------------------|
D||---14--------10---------12------10------12-----------|
A||------0--0-------0--0-------0-------0-------0--------|
D||-----------------------------------------------------|
18. Build up to 2nd break down. Palm Mute x times.
E||-----------------------------------------------------|
B||-----------------------------------------------------|
G||-----------------------------------------------------|
D||--14---------17---------14--------17--------14---14--|
A||------0--0-------0--0-------0-0-------0--0------0---0|
D||-----------------------------------------------------|

E||-----------------------------------------------------|
B||-----------------------------------------------------|
G||-----------------------------------------------------|
D||--14---------17---------14--------17--------14---14--|
A||------0--0-------0--0-------0-0-------0--0------0----|
D||-----------------------------------------------------|
Triplet/hammer on
E||-----------------------------------------------------|
B||-----------------------------------------------------|
G||-----------------------------------------------------|
D||------------10-----9-------14-------17---------------|
A||/0--10-12\------0-----0-------0--0-----0-0-----------|
D||-----------------------------------------------------|

E||-----------------------------------------------------|
B||-----------------------------------------------------|
G||-----------------------------------------------------|
D||--14------17--------14---14------14------17----------|
A||-----0-0------0--0-----0----0-------0-0-----0-0------|
D||-----------------------------------------------------|

E||-----------------------------------------------------|
B||-----------------------------------------------------|
G||-----------------------------------------------------|
D||--14------17------14---14----------------------------|
A||-----0-0-----0-0-----0----0--------------------------|
D||-----------------------------------------------------|

19. Break down. Play 2x times.

E||----------------------------------------------------:|
B||----------------------------------------------------:|
G||----------------------------------------------------:|
D||------10----------5---------12----------------------:|
A||--8----------3---------10--------0------------------:|
D||----------------------------------------------------:|

E||-----------------------------------------------------|
B||-----------------------------------------------------|
G||-----------------------------------------------------|
D||---------7--7----7--7----------8\7-8\7---------------|
A||-0-------5--5----5--5----------6\5-6\5---------------|
D||-0---0---------0-------0--0-0-----------0--0---------|

E||-----------------------------------------------------|
B||-----------------------------------------------------|
G||-----------------------------------------------------|
D||-10--8--10--5--3--5---12--10-------------------------|
A||--8--8---8--3--3--3---10--10-------------------------|
D||--8--8---8--3--3--3---10--10----10/12----------------|

20. Wind Down. Play x times. Slow

E||-----------------------------------------------------|
B||-----------------------------------------------------|
G||-----------------------------------------------------|
D||-------------0----------------------5----------------|
A||-0---5---0--------------0-----------3----------------|
D||-0--------------0---5-------0---3--------------------|

E||-----------------------------------------------------|
B||-----------------------------------------------------|
G||-------------------------------------/5--------------|
D||---------------0---------------------/5--------------|
A||--------5---0-----------0---------3--/3--------------|
D||-0---0------------0--5-----0--3----------------------|

E||-----------------------------------------------------|
B||-----------------------------------------------------|
G||-------------------------------------/5--------------|
D||---------------0---------------------/5--------------|
A||--------5---0-----------0---------3--/3--------------|
D||-0---0------------0--5-----0--3----------------------|

E||-----------------------------------------------------|
B||-----------------------------------------------------|
G||-----------------------------------------------------|
D||--------------0--------------------------------------|
A||---------0-----------------------0-------------------|
D||------------------0------5---------------0-----------|

21. Ending A Slow Play 4 times. Palm mute
E||-----------------------------------------------------|
B||-----------------------------------------------------|
G||-----------------------------------------------------|
D||-----------------------------------------------------|
A||----------3-----2--------3-----2-----5---------------|
D||----------3--0--2--0-0---3--0--2--0--5--0--0---------|

E||-----------------------------------------------------|
B||-----------------------------------------------------|
G||-----------------------------------------------------|
D||-----------------------------------------------------|
A||----------3-----2--------3-----2-----5---------------|
D||----------3--0--2--0-0---3--0--2--0--5--0--0---------|

E||-----------------------------------------------------|
B||-----------------------------------------------------|
G||-----------------------------------------------------|
D||-----------------------------------------------------|
A||----------3-----2--------3-----2-----5---------------|
D||----------3--0--2--0-0---3--0--2--0--5--0-0----------|

E||-----------------------------------------------------|
B||-----------------------------------------------------|
G||-----------------------------------------------------|
D||-----------------------------------------------------|
A||----------3-----2------5-----------------------------|
D||----------3--0--2--0---5---2---0---2----0------------|

22. Ending B faster play 3x times. . Figure 1
I know the pieces fit...
E||-----------------------------------------------------|
B||-----------------------------------------------------|
G||-----------------------------------------------------|
D||-----------------------------------------------------|
A||--3--x--x--2--x--x-------3--x--x--2--x--x--5-x-x-x-x-|
D||--3--x--x--2--x--x-0--0--3--x--x--2--x--x--5-x-x-x-x-|

Figure 2. End of B Triplet---Triplet./hammer on's
E||-----------------------------------------------------|
B||-----------------------------------------------------|
G||-----------------------------------------------------|
D||-----------------------------------------------------|
A||--3--x--x--2--x--x--5---/0--3-5\--/0--3-5\-----------|
D||--3--x--x--2--x--x--5---/0--3-5\--/0--3-5\-----------|

23. Very end, Play 8x times. Palm muted
Triplet-Hammer on
E||-----------------------------------------------------|
B||-----------------------------------------------------|
G||-----------------------------------------------------|
D||-----------------------------------------------------|
A||-----------------5------------------6--------------3-|
D||--0--/0--3--5\------0----/0--3--6\------/0--3---5\---|
Tunning: Standard (E A D G B e)
Gtr I (D A D G B E) - 'Clean electric'
Gtr II (D A D G B E) - 'Gtr I w/dist'
Gtr III (D A D G B E) - 'Rhythm w/dist'
Gtr IV (D A D G B E) - 'Synth arr. for guitar'

Intro
Q=72
4/4
Gtr I
Q Q Q Q Q Q Q Q +W
|-------------|-------------|--------||
|-------------|-------------|--------||
|-3--2--5--7--|-3--2--5--7--|-(7)----||
|-0--3--5--8--|-0--3--5--7--|-(7)----||
|-------------|-------------|--------||
|-------------|-------------|--------||


Faster Q=110
5/8 7/8 5/8
W W W
|-------|---------|------|
|-------|---------|------|
|-------|---------|------|
|-------|---------|------|
|-------|---------|------|
|-------|---------|------|


7/8 5/8 7/8 5/8 7/8
Gtr II




Suggest correction


What's this?

You can suggest a correction to this tab. Community and Mods will review your correction and vote to approve or reject it.




Tunning: Drop D (D A D G B E)
This is the absolute correct way to play it. ive listened so many time and figured it out.

This is played in Drop D tuning.
E
B
G
D
A
D
/: legato slide up
\: legato slide down
[]: triplet
P.M.: Palm Mute
|: : Repeat
Intro
Guitar1
E----------------|--------------------|
B----------------|--------------------|
G--3---2---5---7-|---3---2---5---7----|
D--0---3---5---8-|---0---3---5---8----|
A----------------|--------------------|
D--0---3---5---8-|---0---3---5---8---0|

Guitar 2 plays it it comes in on the 4th beat of the measure after the bass lick.
P.M.--------------------------------------------------------
E----------------|E|:---------------------------------------------------:|
B----------------|B|:---------------------------------------------------:|
G----------------|G|:-3----2-------------3------2-------5---------------:|
D---------[0-3-5]|D|:---0-----0---[0-3-5]---0-------0-------0---[0-3-5]-:|
A----------------|A|:---------------------------------------------------:|
D----------------|D|:---------------------------------------------------:|

P.M.-----------------------------------
E-----------------------------------------------|----------------|
B-----------------------------------------------|-3--------------|
G-3-------2-------------3--------2--------5-----|-2--------------|
D-----0-------0-[0-3-5]-----0--------0-------0--|-0--------------|
A-----------------------------------------------|----------------|
D----------------------------------------------0|----------------|

Let ring-----------| Let ring----------|
E------------------|-----------------|-3--------------|
B-3----------------|-----------------|--3-------------|
G------------------|-----------------|----------------|
D--0---------------|-----------------|----------------|
A------------------|-----------------|----------------|
D----0--0----------|-----------------|----------------|

P.M.------------------------------------------------------
E-5----------------|E:----------------------------------------------:|
B--3---------------|B:----------------------------------------------:|
G------------------|G:----------------------------------------------:|
D------------------|D:10-----9------------10-----9-----12-----------:|
A---------[0-10-12]|A:----0-----0-[0-10-12----0-----0------[0-10-12]:|
D------------------|D:----------------------------------------------:|

P.M.-----------------------------------------------
E--------------------------------------------------|
B--------------------------------------------------|
G--------------------------------------------------|
D-10-----9-------------10-----9-----12-------------|
A-----0-----0-[0-10-12]----0-----0------0-[0-10-12]|
D--------------------------------------------------|

P.M.-----------------------------------
E--------------------------------------------------|
B--------------------------------------------------|
G--------------------------------------------------|
D-10-----9-------------10-----9-----12-------------|
A-----0-----0-[0-10-12]----0-----0------0-[0-10-12]|
D--------------------------------------------------|

Interlude
E|:-----------------------------------------------------:|
B|:-----------------------------------------------------:|
G|:-----------------------------------------------------:|
D|:-10-----9----------------10-----9-----12-------------:|
A|:-----0-----0--0-[0-10-12]----0-----0------0-[0-10-12]:|
D|:-----------------------------------------------------:|
P.M.---
E---------------------------------------------------|
B---------------------------------------------------|
G---------------------------------------------------|
D-10-----9----------------10-----9-----12----[0-5-7]|
A-----0-----0--0-[0-10-12]----0-----0------0--------|
D---------------------------------------------------|

P.M.--------------------------------------------------
E|:---------------------------------------------------:|
B|:---------------------------------------------------:|
G|:-5-----4-----------5------4------7-----------------:|
D|:----0-----0-[0-5-7]----0------0------0-[0-5-7]-----:|
A|:---------------------------------------------------:|
D|:---------------------------------------------------:|

Interlude

To the end

E-----------------------------------------|
B-----------------------------------------|
G-----------------------------------------|
D-10-----9----------------10-----9-----12\|
A-----0-----0--0-[0-10-12]----0-----0-----|
D-----------------------------------------|

E--------------------------------------|
B--------------------------------------|
G--------------------------------------|
D--------------------------------------|
A-0--xx-3--xx-5--3-xx--3--5--5--------3|
D-0--xx-3--xx-5--3-xx--3--5--5-[0-3-5]-|

E--------------------------------------|
B--------------------------------------|
G--------------------------------------|
D--------------------------------------|
A-0--xx-3--xx-5--3-xx--3--5--5--------3|
D-0--xx-3--xx-5--3-xx--3--5--5-[0-3-5]-|

the 12's come in on the 3rd beat of the measure you just played
P.M.
E----------------------|
B---------12-----------|
G---------12-----------|
D---------12-----------|
A-------------[0-10-12]|
D----------------------|
Repeat 8 times
P.M.--------------------------------------------------
E|:---------------------------------------------------:|
B|:---------------------------------------------------:|
G|:-5-----4-----------5------4------7-----------------:|
D|:----0-----0-[0-5-7]----0------0------0-[0-5-7]-----:|
A|:---------------------------------------------------:|
D|:---------------------------------------------------:|

E----------------------------------------------------------|
B----------------------------------------------------------|
G----------------------------------------------------------|
D-10-----9----------------10------9------12-------------10-|
A-----0-----0--0-[0-10-12]-----0------0------0-[0-10-12]---|
D----------------------------------------------------------|

E-------------------------------------------------------|
B-------------------------------------------------------|
G-------------------------------------------------------|
D-10-----9----------------10-----9-----12-------------10|
A-----0-----0--0-[0-10-12]----0-----0------0-[0-10-12]--|
D-------------------------------------------------------|

E|:-------------------------------------------------------------:|
B|:-------------------------------------------------------------:|
G|:-------------------------------------------------------------:|
D|:----9-----12-------------10-------9------12---------------10-:|
A|:-0-----0------0-[0-10-12]-----0-------0-------0-[-0-10-12]---:|
D|:-------------------------------------------------------------:|

E----------------------------------------------|
B----------------------------------------------|
G----------------------------------------------|
D-----9------12-------------10-------0---------|
A-0-------0------0-[0-10-12]-----0-------0-----|
D----------------------------------------------|

Interlude 2
P.M.-----------------------------------------------
E|:------------------------------------------------
B|:------------------------------------------------
G|:------------------------------------------------
D|:-14------14---17-----17---14-----14---19-----19-
A|:-----0----0-------0---0-------0---0-------0---0-
D|:------------------------------------------------
P.M.--------------------------------------------------------
E-----------------------------------------------------------:|
B-----------------------------------------------------------:|
G-----------------------------------------------------------:|
D-12------12---14-----14---10-----10---12-----10------12----:|
A-----0----0-------0---0-------0---0-------0---0---0------0-:|
D-----------------------------------------------------------:|
P.M.------------------------------------------------------------
E------------------------------|-------------------------------|
B------------------------------|-------------------------------|
G------------------------------|-------------------------------|
D-14-----14---17-----17---14---|-14-----14---17-----17---14----|
A-----0---0-------0---0-------0|-----0---0-------0---0-------0-|
D------------------------------|-------------------------------|

E---------------------------------------|-------------|
B---------------------------------------|-------------|
G---------------------------------------|-------------|
D-14---17-----17---14-----14------------|-10-----9----|
A--0-------0---0-------0-------[0-10-12]|-----0-----0-|
D---------------------------------------|-------------|

E|:-------------------------------|--------------------------------:|
B|:-------------------------------|--------------------------------:|
G|:-------------------------------|--------------------------------:|
D|:-14-----14---17-----17---14----|-14---17-----17---14-----14-----:|
A|:-----0---0-------0---0-------0-|--0-------0---0-------0-------0-:|
D|:-------------------------------|--------------------------------:|

E---------------------------|----------------------------|
B---------------------------|----------------------------|
G---------------------------|-----9-----------12---------|
D-----10\------5\--------12-|-7---x------------x---------|
A-8--------3--------10------|-7---7---0---0---10---0---0-|
D---------------------------|-7--------------------------|

E----------------------------------------|
B----------------------------------------|
G-9-----------12-----------9-------------|
D-x------------x-----------x-------------|
A-7---0---0---10---0---0---7---0---0---0-|
D----------------------------------------|

E------------------------------|-----------------------------------------|
B------------------------------|-----------------------------------------|
G------------------------------|---------------7---7---8---7---7---8---7-|
D-----10----------5/------12---|-------0-------7---7---8---7---7---8---7-|
A-8-------0---0-------10-------|---------------5---5---6---5---5---6---5-|
D----------------------------0-|-0---------0-----------------------------|

E-------------------------5---5---7-|-----------|
B-------------------------3---3---7-|-----------|
G-------------------------3---3---5-|-----------|
D-10--8---10--5---3---5-------------|-----------|
A-8---8---8---5---3---3-------------|---0-----5-|
D-8---8---8---3---3---3-------------|---0-------|

E-------------------------------|
B-------------------------------|
G-----------------------------5-|
D----0------------------------3-|
A-0-------------0---------3---3-|
D--------0---5-----0---3--------|

E|:----------|----------------------------------:|
B|:----------|----------------------------------:|
G|:----------|--------------------------------5-:|
D|:----------|-----0--------------------------3-:|
A|:--------5-|--0--------------0----------3---3-:|
D|:-0---0----|----------0---5------0---3--------:|

E----------------------|
B----------------------|
G----------------------|
D-----0----------------|
A-0--------------0-----|
D---------0---5------0-|

P.M.-----------------------------------------------
E|:-----------------------------------------------:|
B|:-----------------------------------------------:|
G|:-----------------------------------------------:|
D|:-----------------------------------------------:|
A|:-3---0---2---0---0---3---0---2---0---5---0---0-:|
D|:-3---0---2---0---0---3---0---2---0---5---0---0-:|

P.M.-------------------------------------------------
E----------------------------------------------------|
B----------------------------------------------------|
G----------------------------------------------------|
D----------------------------------------------------|
A-3---0---2---0---0---3---0---2---0---5---x--x--x--x-|
D-3---0---2---0---0---3---0---2---0---5---x--x--x--x-|

Repeat 4 times
E|:---------------------------------------------------:|
B|:---------------------------------------------------:|
G|:---------------------------------------------------:|
D|:---------------------------------------------------:|
A|:-3---x-x--2---x-x-x-x-3---x-x--2---x-x-5---x-x-x-x-:|
D|:-3---x-x--2---x-x-x-x-3---x-x--2---x-x-5---x-x-x-x-:|

P.M.--------------------------------------
E|:---------------------------------------:|
B|:---------------------------------------:|
G|:---------------------------------------:|
D|:------------5-------------6-[5-6-5]--3-:|
A|:-0---[0-3-5]-----0-[0-3-5]-------------:|

Thats it if u have any question and u have myspace my address is www.myspace.com/tweak6479.
D|:
Tunning: Standard (E A D G B e)
[0:00]
(Clean + Reverb)
e|------------------------------------|------------------------------------|
B|------------------------------------|------------------------------------|
G|-3----2----5----7-------------------|-3----2----5----7-------------------|
D|-0----3----5----8-------------------|-0----3----5----7-------------------|
A|------------------------------------|------------------------------------|
D|------------------------------------|---------------------0--------------|

[0:19]
e|--------------------------|
B|--------------------------|
G|--------------------------|
D|--------------------------|
A|--------------------------|
D|-0------------------------|

[0:26]
e|-------------------------------------------|
B|-------------------------------------------|
G|-------3-----2-----------3-----2-----5-----|
D|-0h3h5----0-----0--0h3h5----0-----0-----0--| (x3)
A|-------------------------------------------|
D|-------------------------------------------|
m m m m m m m m m m m m

e|------------------------------------------------------------------------|
B|---------------------------------------------3--------------------------|
G|-------3-----2-----------3-----2-----5-------2--------------------------|
D|-0h3h5----0-----0--0h3h5----0-----0-----0----0--------------------------|
A|------------------------------------------------------------------------|
D|------------------------------------------------------------------------|
m m m m m m m m

[0:53]
e|-----------------------|-3----------------------5-----------------------|
B|--3--------------------|----3----------------------3--------------------|
G|-----------------------|------------------------------------------------|
D|----0------------------|-------0----------------------0-----------------|
A|-----------------------|------------------------------------------------|
D|-----------------------|------------------------------------------------|

[1:07]
e|--------------------------------------------------|
B|--------------------------------------------------|
G|--------------------------------------------------|
D|---------10-----9-------------10-----9-----12-----| (x3)
A|-0h10h12-----0-----0--0h10h12-----0-----0------0--|
D|--------------------------------------------------|
m m m m m m m m m m m m

e|--------------------------------------------------|
B|--------------------------------------------------|
G|--------------------------------------------------|
D|---------10-----9-------------10-----9-----12-----|
A|-0h10h12-----0-----0--0h10h12-----0-----0------0--|
D|--------------------------------------------------|
m m m m m m m m m m

[1:20]
e|--------------------------------------------------|
B|--------------------------------------------------|
G|--------------------------------------------------|
D|---------10-----9-------------10-----9-----12-----| (x4)
A|-0h10h12-----0-----0--0h10h12-----0-----0------0--|
D|--------------------------------------------------|

[1:35]
e|--------------------------------------------------|
B|--------------------------------------------------|
G|--------------------------------------------------|
D|---------10-----9-------------10-----9-----12-----| (x7)
A|-0h10h12-----0-----0--0h10h12-----0-----0------0--|
D|--------------------------------------------------|
m m m m m m m m m m m m

e|--------------------------------------------------|
B|--------------------------------------------------|
G|--------------------------------------------------|
D|---------10-----9-------------10-----9-----12-----|
A|-0h10h12-----0-----0--0h10h12-----0-----0------0--|
D|--------------------------------------------------|
m m m m m m m m

[2:01]
e|--------------------------------------------------|
B|--------------------------------------------------|
G|--------------------------------------------------|
D|---------10-----9-------------10-----9-----12-----| (x3)
A|-0h10h12-----0-----0--0h10h12-----0-----0------0--|
D|--------------------------------------------------|

e|--------------------------------------------------|
B|--------------------------------------------------|
G|--------------------------------------------------|
D|---------10-----9-------------10-----9----*12---\-|
A|-0h10h12-----0-----0--0h10h12-----0-----0---------|
D|--------------------------------------------------|

[2:16]
e|----------------------------------------|
B|----------------------------------------|
G|----------------------------------------|
D|-0--xx-3--xx-5--3--xx-3--5--5-----------| (x3)
A|-0--xx-3--xx-5--3--xx-3--5--5--------3--|
D|-0--xx-3--xx-5--3--xx-3--5--5--0h3h5----|

e|----------------------------------------|
B|----------------------------------------|
G|----------------------------------------|
D|-0--xx-3--xx-3/5\3-xx-3--5--5-----------|
A|-0--xx-3--xx-3/5\3-xx-3--5--5--------3--|
D|-0--xx-3--xx-3/5\3-xx-3--5--5--0h3h5----|

[2:32]
e|------------------------------------------------------------------|
B|------------------------------------------------------------------|
G|-12-------------------------------\-------------------------------|
D|-12-------------------------------\-----------10-----9-----12-----|
A|-10-------------------------------\---0h10h12-----0-----0------0--|
D|------------------------------------------------------------------|
m m m m m m m m

e|------------------------------------------------|
B|------------------------------------------------|
G|------------------------------------------------|
D|---------9-----7-------------9-----7-----10-----|
A|-0h10h12----0-----0--0h10h12----0-----0------0--|
D|------------------------------------------------|
m m m m m m m m m m m m

e|--------------------------------------------------|
B|--------------------------------------------------|
G|--------------------------------------------------|
D|---------10-----9-------------10-----9-----12-----|
A|-0h10h12-----0-----0--0h10h12-----0-----0------0--|
D|--------------------------------------------------|
m m m m m m m m m m m m
(x3)
e|------------------------------------------------|
B|------------------------------------------------|
G|------------------------------------------------|
D|---------9-----7-------------9-----7-----10-----|
A|-0h10h12----0-----0--0h10h12----0-----0------0--|
D|------------------------------------------------|
m m m m m m m m m m m m

[3:00]
e|--------------------------------------------------|
B|--------------------------------------------------|
G|--------------------------------------------------|
D|---------10-----9-------------10-----9-----12-----| (x4)
A|-0h10h12-----0-----0--0h10h12-----0-----0------0--|
D|--------------------------------------------------|

[3:14]
e|-----------------------------| e|----------------------------|
B|-----------------------------| B|----------------------------|
G|-----------------------------| G|----------------------------|
D|---------10-----9-----12-----| (x7) D|---------10-----9-----------|
A|-0h10h12-----0-----0------0--| A|-0h10h12-----0-----0--------|
D|-----------------------------| D|----------------------------|

[3:31]
e|-----------------------------------------------------------------|
B|-----------------------------------------------------------------|
G|-----------------------------------------------------------------|
D|-14-----17-----14-----19-----12-----14-----10-----12---10---12---| (x12)
A|----0-0----0-0----0-0----0-0----0-0----0-0----0-0----0----0----0-|
D|-----------------------------------------------------------------|
m m m m m m m m m m m m m m m m m

[5:02]
e|---------------------------------------|
B|---------------------------------------|
G|---------------------------------------|
D|-14-----17-----14-----17-----14---14---|
A|----0-0----0-0----0-0----0-0----0----0-|
D|---------------------------------------|
m m m m m m m m m m

e|------------------------------------------------------|
B|------------------------------------------------------|
G|------------------------------------------------------|
D|-14-----17-----14-----17-----14---14---------10---9---|
A|----0-0----0-0----0-0----0-0----0----0h10h12----0---0-|
D|------------------------------------------------------|
m m m m m m m m m m m m m m

e|---------------------------------------|
B|---------------------------------------|
G|---------------------------------------|
D|-14-----17-----14-----17-----14---14---| (x2)
A|----0-0----0-0----0-0----0-0----0----0-|
D|---------------------------------------|
m m m m m m m m m m

[5:21]
e|--------------------------------------------------------------|
B|--------------------------------------------------------------|
G|-10-10---5-5--/12-12--------9-----12-----9-----12-----9---9---|
D|-10-10---5-5--/12-12---7----x-----x------x-----x------x---x---| (x2)
A|-8--8----3-3--/10-10---7----7-0-0-10-0-0-7-0-0-10-0-0-7-0-7-0-|
D|-----------------------7--------------------------------------|

e|-----------------------------------------------------------------------|
B|-----------------------------------------------------------------------|
G|-10-10---5-5--/12-12---7----777777-7-77-8-7-77-8-7-10-10--5-5--/12-12--|
D|-10-10---5-5--/12-12---7----777777-7-77-8-7-77-8-7-10-8---5-3--/12-12--|
A|-8--8----3-3--/10-10---5----555555-5-55-6-5-55-6-5-8--8---3-3--/10-10--|
D|-----------------------0-----------------------------------------------|
triplets

[5:44]
e|----------------------------------------|
B|----------------------------------------|
G|----------------------------------------|
D|------0-------0--------0----------------| (x3)
A|-----------0---------------------3------|
D|-0---------------0--5------0--3----/10--|

e|------------------------------|
B|------------------------------|
G|------------------------------|
D|------0-------0--------0------|
A|-----------0------------------|
D|-0---------------0--5------0--|

[5:59]
e|-------------------------------------|
B|-------------------------------------|
G|-------------------------------------|
D|-3--0--2--0--0--3--0--2--0--5--0--0--| (x3)
A|-3--0--2--0--0--3--0--2--0--5--0--0--|
D|-3--0--2--0--0--3--0--2--0--5--0--0--|
m m m m m m m m m m m m

e|-------------------------------------|
B|-------------------------------------|
G|-------------------------------------|
D|-3--0--2--0--0--3--0--2--0--5--xxxx--|
A|-3--0--2--0--0--3--0--2--0--5--xxxx--|
D|-3--0--2--0--0--3--0--2--0--5--xxxx--|
m m m m m m m m m m

e|-------------------------------------|
B|-------------------------------------|
G|-------------------------------------|
D|-3--xx-2--xxxx--3--xx-2--xx-5--xxxx--| (x4)
A|-3--xx-2--xxxx--3--xx-2--xx-5--xxxx--|
D|-3--xx-2--xxxx--3--xx-2--xx-5--xxxx--|

[6:24]
e|-------------------------------|
B|-------------------------------|
G|-------------------------------|
D|-------------------------------| (x8)
A|----------5-----------6-----3--|
D|-0--0h3h5----0--0h3h5----0-----|
m m m m m m m m



************************************

| h Hammer-on
| \ Slide down
| * Natural harmonic
| x Dead note
| / Slide up

************************************
Song info
Schism
Tool
2001
  • Rock
  • Heavy Metal
  • Prog Rock
Alternative tracks
Similar songs
No Gravity - Kiko Loureiro
Im Alive - Helloween
Covered With Sores - Cannibal Corpse
Waidmanns Heil - Rammstein

Hi! Hope you enjoy backing track experience.
If you want to help us in the development of the project, feel free to donate!