City Of Blinding Lights - U2
00:00 / 00:00
Tabs and lyrics
Tunning: Standard (E A D G B e)
/********************************************************************/
/* U2 - How To Dismantle An Atomic Bomb - City Of Blinding Lights */
/* Solo tabs created after hearing. Feel free to send me an email */
/* to if you think there are corrections */
/* to be made. I belive it's pretty close to what's on the album! */
/* */
/* \ means: slide down */
/* / means: slide up */
/* */
/* Have fun playing it! */
/* F.B. */
/* */
/* Ps: If anyone has tabs for the background solo guitar, please */
/* send it to me! */
/********************************************************************/

melody 1: (piano)
-18-------16-------15----------------16-------15-------------------------|
----------------------------18-------------------------18-------16-------|
-------------------------------------------------------------------------|
-------------------------------------------------------------------------|
-------------------------------------------------------------------------|
-------------------------------------------------------------------------|
4 times

melody 2:
-------------------------------------------------------------------------|
-14-----13-13-------9--/11--/14------13------9----------9--/11---/14-----|
-------------------------------------------------------------------------|
-------------------------------------------------------------------------|
-------------------------------------------------------------------------|
-------------------------------------------------------------------------|

-------------------------------------------------------------------------|
--13-13-------11----\---6------------------------------------------------|
-------------------------------------------------------------------------|
-------------------------------------------------------------------------|
-------------------------------------------------------------------------|
-------------------------------------------------------------------------|
2 times

pause until:

"And I miss you when..."
melody 3:
-9-------7-------6-------7-------6---4---6-------------------------------|
-------------------------------------------------9------7------6-------5-|
-------------------------------------------------------------------------|
-------------------------------------------------------------------------|
-------------------------------------------------------------------------|
-------------------------------------------------------------------------|
2 times

"U uu uu ..."
melody 4:
---------------------------------------------|
-11-11-11-9-11-11-11-9-11-11-11-9-11-11-11-9-|
---------------------------------------------|
---------------------------------------------|
---------------------------------------------|
---------------------------------------------|

-9-9-9-9-11-11-11-11-13-13-13-13-9-9-9-9-----|
---------------------------------------------|
---------------------------------------------|
---------------------------------------------|
---------------------------------------------|
---------------------------------------------|
9 times

and then melody 2, 2 times

"Can you see the beauty..."
melody 5:
-------------------------------------------------------------------------|
-------------------------------------------------------------------------|
-------------------------------------------------------------------------|
-10------11-10----8------10------11-10----8------------------------------|
-------------------------------------------------6------6------8---------|
-------------------------------------------------------------------------|
2 times

melody 3, 2 times
melody 4, 3 times
melody 2, 2 times

"Time, time..."
melody 6:
------------------------------|
------------------------------|
------------------------------|
------------------------------|
-10/15---10/11---10/13------\-|
------------------------------|
2 times

melody 4, 5 times
melody 2, 2 times
melody 1, 4 times
Tunning: Standard (E A D G B e)
U2 - City of blinding lights
ALbum: how to dismantle an atomic bom
tab by: lennert moens ( hallo_kroket14@hotmail.com )
This is probably 100 % perfect!!!

Piano
-18-------16-------15----------------16-------15-------------------------|
----------------------------18-------------------------18-------16-------|
-------------------------------------------------------------------------|
-------------------------------------------------------------------------|
-------------------------------------------------------------------------|
-------------------------------------------------------------------------|
4X

Melody :
-------------------------------------------------------------------------|
-14-----13--------9--/11--/14------13------9----------9--/11---/14-----|
-------------------------------------------------------------------------|
-------------------------------------------------------------------------|
-------------------------------------------------------------------------|
-------------------------------------------------------------------------|

-------------------------------------------------------------------------|
--13-13-------11----\---6------------------------------------------------|
-------------------------------------------------------------------------|
-------------------------------------------------------------------------|
-------------------------------------------------------------------------|
-------------------------------------------------------------------------|
2X

Chorus :
e|-11-11-11--11-11-11--11-11-11-11--11-11-11--11-11-11--11-11-11-11-------|
b|-9--9--9--—9—-9—-9---9—-9—-9--9---9--9--9--—9—-9—-9---9—-9—-9--9--------|
g|------------------------------------------------------------------------|
d|------------------------------------------------------------------------|
a|------------------------------------------------------------------------|
E|------------------------------------------------------------------------|
( listen to the song and hear how much times, it depends on how fast you play it)
( palm muted)


e|-----11------11-------11-----
b|-9------9--------9---------9-
g|-----------------------------
d|-----------------------------
a|-----------------------------




e|-11-11-11--11-11-11--11-11-11-11-11-11-11-11----11--11-11--11-11-11-11--|
b|-9--9--9--—9—-9—-9---9—-9—-9--9--8--8--8--8/11--11--8--8/9--9—-9—-9--9--|
g|------------------------------------------------------------------------|
d|------------------------------------------------------------------------|
a|------------------------------------------------------------------------|
E|------------------------------------------------------------------------|
( same thing here) ( palm muted)






"And I miss you when..."
-9-------7-------6-------7-------6---4---6-------------------------------|
-------------------------------------------------9------7------6-------5-|
-------------------------------------------------------------------------|
-------------------------------------------------------------------------|
-------------------------------------------------------------------------|
-------------------------------------------------------------------------|
2X

"U uu uu ..."

-11-11-11-9-11-11-11-9-11-11-11-9-11-11-11-9-|
-11-11-11-9-11-11-11-9-11-11-11-9-11-11-11-9-|
---------------------------------------------|
---------------------------------------------|
---------------------------------------------|
---------------------------------------------|

-9-9-9-9-11-11-11-11-13-13-13-13-9-9-9-9-----|
-9-9-9-9-9--9--9--9--9—-9--9--9--9-9-9-9-----|
---------------------------------------------|
---------------------------------------------|
---------------------------------------------|
---------------------------------------------|
3X

Melody :
-------------------------------------------------------------------------|
-14-----13--------9--/11--/14------13------9----------9--/11---/14-------|
-------------------------------------------------------------------------|
-------------------------------------------------------------------------|
-------------------------------------------------------------------------|
-------------------------------------------------------------------------|

-------------------------------------------------------------------------|
--13-13-------11----\---6------------------------------------------------|
-------------------------------------------------------------------------|
-------------------------------------------------------------------------|
-------------------------------------------------------------------------|
-------------------------------------------------------------------------|
2X





Chorus :
e|-11-11-11--11-11-11--11-11-11-11--11-11-11--11-11-11--11-11-11-11-------|
b|-9--9--9--—9—-9—-9---9—-9—-9--9---9--9--9--—9—-9—-9---9—-9—-9--9--------|
g|------------------------------------------------------------------------|
d|------------------------------------------------------------------------|
a|------------------------------------------------------------------------|
E|------------------------------------------------------------------------|
( listen to the song and hear how much times, it depends on how fast you play it)
( palm muted)

e|-----11------11-------11-----
b|-9------9--------9---------9-
g|-----------------------------
d|-----------------------------
a|-----------------------------






e|-11-11-11--11-11-11--11-11-11-11-11-11-11-11----11--11-11--11-11-11-11--|
b|-9--9--9--—9—-9—-9---9—-9—-9--9--8--8--8--8/11--11--8--8/9--9—-9—-9--9--|
g|------------------------------------------------------------------------|
d|------------------------------------------------------------------------|
a|------------------------------------------------------------------------|
E|------------------------------------------------------------------------|
( same thing here) ( palm muted)


"Can you see the beauty..."
-------------------------------------------------------------------------|
-------------------------------------------------------------------------|
-------------------------------------------------------------------------|
-10------11-10----8------10------11-10----8------------------------------|
-------------------------------------------------6------6------8---------|
-------------------------------------------------------------------------|
2X



"And I miss you when..."

-9-------7-------6-------7-------6---4---6-------------------------------|
-------------------------------------------------9------7------6-------5-|
-------------------------------------------------------------------------|
-------------------------------------------------------------------------|
-------------------------------------------------------------------------|
-------------------------------------------------------------------------|
2X

"U uu uu ..."

-11-11-11-9-11-11-11-9-11-11-11-9-11-11-11-9-|
-11-11-11-9-11-11-11-9-11-11-11-9-11-11-11-9-|
---------------------------------------------|
---------------------------------------------|
---------------------------------------------|
---------------------------------------------|
( palm muted)


-9-9-9-9-11-11-11-11-13-13-13-13-9-9-9-9-----|
-9-9-9-9-9--9--9--9--9—-9--9--9--9-9-9-9-----|
---------------------------------------------|
---------------------------------------------|
---------------------------------------------|
---------------------------------------------|
3X ( palm muted)








Melody :
-------------------------------------------------------------------------|
-14-----13--------9--/11--/14------13------9----------9--/11---/14-----|
-------------------------------------------------------------------------|
-------------------------------------------------------------------------|
-------------------------------------------------------------------------|
-------------------------------------------------------------------------|

-------------------------------------------------------------------------|
--13-13-------11----\---6------------------------------------------------|
-------------------------------------------------------------------------|
-------------------------------------------------------------------------|
-------------------------------------------------------------------------|
-------------------------------------------------------------------------|
2X


"Time, time..."

------------------------------|
------------------------------|
------------------------------|
------------------------------|
-10/15--10/15---10/13--10/15\-|
------------------------------|
(you can improvise here, hear it)


-11-11-11-9-11-11-11-9-11-11-11-9-11-11-11-9-|
-11-11-11-9-11-11-11-9-11-11-11-9-11-11-11-9-|
---------------------------------------------|
---------------------------------------------|
---------------------------------------------|
---------------------------------------------|
( palm muted)


-9-9-9-9-11-11-11-11-13-13-13-13-9-9-9-9-----|
-9-9-9-9-9--9--9--9--9—-9--9--9--9-9-9-9-----|
---------------------------------------------|
---------------------------------------------|
---------------------------------------------|
---------------------------------------------|
6X ( palm muted)


Melody :
-------------------------------------------------------------------------|
-14-----13--------9--/11--/14------13------9----------9--/11---/14-----|
-------------------------------------------------------------------------|
-------------------------------------------------------------------------|
-------------------------------------------------------------------------|
-------------------------------------------------------------------------|

-------------------------------------------------------------------------|
--13-13-------11----\---6------------------------------------------------|
-------------------------------------------------------------------------|
-------------------------------------------------------------------------|
-------------------------------------------------------------------------|
2X


Chorus :( palm muted)
e|-11-11-11--11-11-11--11-11-11-11--11-11-11--11-11-11--11-11-11-11-------|
b|-9--9--9--—9—-9—-9---9—-9—-9--9---9--9--9--—9—-9—-9---9—-9—-9--9--------|
g|------------------------------------------------------------------------|
d|------------------------------------------------------------------------|
a|------------------------------------------------------------------------|
E|------------------------------------------------------------------------|
( listen to the song and hear how much times, it depends on how fast you play it)

e|-----11------11-------11-----
b|-9------9--------9---------9-
g|-----------------------------
d|-----------------------------
a|-----------------------------



e|-11-11-11--11-11-11--11-11-11-11-11-11-11-11----11--11-11--11-11-11-11--|
b|-9--9--9--—9—-9—-9---9—-9—-9--9--8--8--8--8/11--11--8--8/9--9—-9—-9--9--|
g|------------------------------------------------------------------------|
d|------------------------------------------------------------------------|
a|------------------------------------------------------------------------|
E|------------------------------------------------------------------------|
( same thing here)

( et the end its this part and also the piano from the beginning)
Tunning: Standard (E A D G B e)
U2 - City of blinding lights
ALbum: how to dismantle an atomic bomb
tab by: lennert moens ( hallo_kroket14@hotmail.com )
Tune Your Guitar down ½
This is the second time I post this tab but now I have managed to tab it as accurate as
enjoy it!!!

The most important thing is that you use Delay, otherwise you can’t play the song as it was meant to be!

In the verses when you have to play palm muted it’s important that you use the dimpled
of your plectrum, is you don’t have dimpled plectrums than you can’t play the song as it
meant to be! Also you your palm mute gently!

[Intro Guitar] 3X (00:12s)
e|-12-12-12-12-12-12-12-12-12-12-12-12-12-12-12-12-|
B|-10-x--x--10—-x—-x-10—-x—-x-10--x--x-10--x—10—-x-|
G|-------------------------------------------------|
D|-------------------------------------------------|
A|-------------------------------------------------|
E|-------------------------------------------------|
Gently mute the b-string and let the e-string ring
The delay will do the rest

[REST OF INTRO] 4X
e|-12-12-12-12-12-12-12-12-12-----------------------------|
B|-10-x--x--10—x—-x--10—10—10--9--9--9--9-12-12-9—9-10—10-|
G|--------------------------------------------------------|
D|--------------------------------------------------------|
A|--------------------------------------------------------|
E|--------------------------------------------------------|

e|-12-12-12-12-12-12-12-12-12-12-12-12-12-12-12-12-|
B|-10-x--x--10—-x—-x-10—-x—-x-10--x--x-10-x—-x—-10-|
G|-------------------------------------------------|
D|-------------------------------------------------|
A|-------------------------------------------------|
E|-------------------------------------------------|
Gently mute the b-string and let the e-string ring
The delay will do the rest (it’s important to keep up the rithem of the delay ) listen
the song how much the edge plays this because I’m not sure!

[MELODY] 2X
e|-------------------------------------------------------------------------|
B|-15-----14--------10--/12--/15------14------10----------10--/12---/15----|
G|-------------------------------------------------------------------------|
D|-------------------------------------------------------------------------|
A|-------------------------------------------------------------------------|
E|-------------------------------------------------------------------------|

e|-------------------------------------------------------------------------|
B|--14-------10-/-12\---7--------------------------------------------------|
G|-------------------------------------------------------------------------|
D|-------------------------------------------------------------------------|
A|-------------------------------------------------------------------------|
E|-------------------------------------------------------------------------|

[Verse]
e|--------------------------------------------------|
B|-10-10-10—10-10-10-10-10-10-10-10-10-10—10-10-10--|
G|--------------------------------------------------|
D|--------------------------------------------------|
A|--------------------------------------------------|
E|--------------------------------------------------|
Play this palm muted

e|--------------------------------------------------|
B|-10----10—10-10-10-10-10-10-10-10-10-10—10-10-10--|
G|--------------------------------------------------|
D|--------------------------------------------------|
A|--------------------------------------------------|
E|--------------------------------------------------|
NOT palm / from here palm muted again
muted

e|--------------------------------------------------|
B|-10-10-10—10-10-10-10-10-10-10-10-10-10—10-10-10--|
G|--------------------------------------------------|
D|--------------------------------------------------|
A|--------------------------------------------------|
E|--------------------------------------------------|
Play this palm muted

e|----------------------------------12---12---12----|
B|-10-10-10—10-10-10-10-10-10-10--10---10—-—10—-----|
G|--------------------------------------------------|
D|--------------------------------------------------|
A|--------------------------------------------------|
E|--------------------------------------------------|
Play this palm muted / FROM HERE NOT PALM MUTED

e|------------------------------------------------------|
B|-10-10-10—10-10-10-10-10--9—-9—-9--9-12-12—9--9-10-10-|
G|------------------------------------------------------|
D|------------------------------------------------------|
A|------------------------------------------------------|
E|------------------------------------------------------|
First note not palm muted, rest is palm muted

e|------------------------------------12------------|
B|-10-10-10—10--------10-/-12-(12)-10----10—10-10---|
G|-------------11-(11)------------------------------|
D|--------------------------------------------------|
A|--------------------------------------------------|
E|--------------------------------------------------|
Play this palm muted / NOT Palm Muted from here

e|--------------------------------------------------------|
B|-10-10-10—10-10-10-10-10-10-9—-9—-9--9-12-12—9--9-10-10-|
G|--------------------------------------------------------|
D|--------------------------------------------------------|
A|--------------------------------------------------------|
E|--------------------------------------------------------|
First note not palm muted, rest is palm muted

e|-------------------------------------------12-----|
B|-10-10-10—10-10-10-10-10-10-10-10-10-10—10----10--|
G|--------------------------------------------------|
D|--------------------------------------------------|
A|--------------------------------------------------|
E|--------------------------------------------------|
Play this palm muted / NOT Palm Muted from here

[PRE-CHORUS] 2X
e|-10---------------------------------------------------------------|
B|--------13------12---13---12---10--12-----10----------------------|
G|--------------------------------------------------12-11--9--------|
D|----0------0-------0---------0--------0------0--------------0-----|
A|------0------0----------0---------------0------0--------------0---|
E|------------------------------------------------------------------|

LET THE d and a string RING, the edge plays it like this because otherwise it sounds
tender, and that is not the intention.

[CHORUS] 3X
e|-0—-0--0--0--0—-0--0—-0--0--0--0--0--0--0--0--0--|
B|-12-12-12-9--12-12-12-9--12-12-12-9—-12-12-12-9--|
G|-------------------------------------------------|
D|-------------------------------------------------|
A|-------------------------------------------------|
E|-------------------------------------------------|

e|-10-10-10-10-12-12-12-12-14-14-14-14-10-10-10-10-|
B|-10-10-10-10-10-10-10-10-10-10-10-10-10-10-10-10-|
G|-------------------------------------------------|
D|-------------------------------------------------|
A|-------------------------------------------------|
E|-------------------------------------------------|

[MELODY] 1X
e|-------------------------------------------------------------------------|
B|-15-----14--------10--/12--/15------14------10----------10--/12---/15----|
G|-------------------------------------------------------------------------|
D|-------------------------------------------------------------------------|
A|-------------------------------------------------------------------------|
E|-------------------------------------------------------------------------|

e|-------------------------------------------------------------------------|
B|--14-------10-/-12\---7--------------------------------------------------|
G|-------------------------------------------------------------------------|
D|-------------------------------------------------------------------------|
A|-------------------------------------------------------------------------|
E|-------------------------------------------------------------------------|

[Verse 2]
e|---12---12---12----12------------------------------------------------|
B|-10---10—-—10—--10---10-10-10-10-10-10-10-10-10-10-10-10-10-10-10-10-|
G|---------------------------------------------------------------------|
D|---------------------------------------------------------------------|
A|---------------------------------------------------------------------|
E|---------------------------------------------------------------------|
/ from here palm muted but gently and sometimes let
A not ring , it will create and nice tone with the delay

e|-------------------------------------------------------12----|
B|-10-10-10—10-10-10-10-10-10-10-10-10-10-10-10-10-10-10----10-|
G|-------------------------------------------------------------|
D|-------------------------------------------------------------|
A|-------------------------------------------------------------|
E|-------------------------------------------------------------|

e|---12---------------------------------------------------------------|
B|-10--10—10—10—10-10-10—10-10-10-10-10--9—-9—-9--9-12-12—9--9-10-10--|
G|--------------------------------------------------------------------|
D|--------------------------------------------------------------------|
A|--------------------------------------------------------------------|
E|--------------------------------------------------------------------|
NOT PM / Play this palm mute / FROM HERE NOT PALM MUTED

e|-------------------12-12----12----12------------------------------|
B|-10-10-10—10-10-10-------10----10---10-(10)-10-10-10-10-10-10-10--|
G|------------------------------------------------------------------|
D|------------------------------------------------------------------|
A|------------------------------------------------------------------|
E|------------------------------------------------------------------|

/ PALM MUTED
e|---------------------------------------------------------|
B|—10—10-10-10—10-10-10-10-10--9—-9—-9--9-12-12—9--9-10-10-|
G|---------------------------------------------------------|
D|---------------------------------------------------------|
A|---------------------------------------------------------|
E|---------------------------------------------------------|
/ NOT PALM MUTED

e|-------------------------------------------------------12----|
B|-10-10-10—10-10-10-10-10-10-10-10-10-10-10-10-10-10-10----10-|
G|-------------------------------------------------------------|
D|-------------------------------------------------------------|
A|-------------------------------------------------------------|
E|-------------------------------------------------------------|
/ AGAIN PALM MUTED /NOT P.M.

THIS NEXT TWO BARS 2X (make sure that the strings ring like hell)
e|------------------------------------------------------------------------|
B|------------------------------------------------------------------------|
G|------------------------------------------------------------------------|
D|-11--/--12-11----9------11--/--12-11----9-------------------------------|
A|------------------------------------------------7----/--9---------------|
E|------------------------------------------------------------------------|

e|-----------------|
B|-----------------|
G|-----------------|
D|----2---2--------|
A|---0---0---------|
E|--0---0----------|

[PRE-CHORUS] 2X
e|-10---------------------------------------------------------------|
B|--------13------12---13---12---10--12-----10----------------------|
G|--------------------------------------------------12-11--9--------|
D|----0------0-------0---------0--------0------0--------------0-----|
A|------0------0----------0---------------0------0--------------0---|
E|------------------------------------------------------------------|
LET THE d and a string RING, the edge plays it like this because otherwise it sounds
tender, and that is not the intention.

[CHORUS] 3X
e|-0—-0--0--0--0—-0--0—-0--0--0--0--0--0--0--0--0--|
B|-12-12-12-9--12-12-12-9--12-12-12-9—-12-12-12-9--|
G|-------------------------------------------------|
D|-------------------------------------------------|
A|-------------------------------------------------|
E|-------------------------------------------------|

e|-10-10-10-10-12-12-12-12-14-14-14-14-10-10-10-10-|
B|-10-10-10-10-10-10-10-10-10-10-10-10-10-10-10-10-|
G|-------------------------------------------------|
D|-------------------------------------------------|
A|-------------------------------------------------|
E|-------------------------------------------------|

[MELODY]
e|-------------------------------------------------------------------------|
B|-15-----14--------10--/12--/15------14------10----------10--/12---/15----|
G|-------------------------------------------------------------------------|
D|-------------------------------------------------------------------------|
A|-------------------------------------------------------------------------|
E|-------------------------------------------------------------------------|

e|-------------------------------------------------------------------------|
B|--14-------10-/-12\---7--------------------------------------------------|
G|-------------------------------------------------------------------------|
D|-------------------------------------------------------------------------|
A|-------------------------------------------------------------------------|
E|-------------------------------------------------------------------------|

[BRIDGE] 4X
e|-------------------|
B|-------------------|
G|-------------------|
D|-------------------|
A|-1/14--1/9---1/14\\|
E|-------------------|
If possible use 2 distortions at the same time,

[CHORUS] 5X
e|-0—-0--0--0--0—-0--0—-0--0--0--0--0--0--0--0--0--|
B|-12-12-12-9--12-12-12-9--12-12-12-9—-12-12-12-9--|
G|-------------------------------------------------|
D|-------------------------------------------------|
A|-------------------------------------------------|
E|-------------------------------------------------|

e|-10-10-10-10-12-12-12-12-14-14-14-14-10-10-10-10-|
B|-10-10-10-10-10-10-10-10-10-10-10-10-10-10-10-10-|
G|-------------------------------------------------|
D|-------------------------------------------------|
A|-------------------------------------------------|
E|-------------------------------------------------|

[MELODY] 2X
e|-------------------------------------------------------------------------|
B|-15-----14--------10--/12--/15------14------10----------10--/12---/15----|
G|-------------------------------------------------------------------------|
D|-------------------------------------------------------------------------|
A|-------------------------------------------------------------------------|
E|-------------------------------------------------------------------------|

e|-------------------------------------------------------------------------|
B|--14-------10-/-12\---7--------------------------------------------------|
G|-------------------------------------------------------------------------|
D|-------------------------------------------------------------------------|
A|-------------------------------------------------------------------------|
E|-------------------------------------------------------------------------|

[Outro]
e|---12--------------------------------------------------------------|
B|-10--10—12—10—12-10-12—10-12-10-12-10--9—-9—-9--9-12-12—9--9-10-10-|
G|-------------------------------------------------------------------|
D|-------------------------------------------------------------------|
A|-------------------------------------------------------------------|
E|-------------------------------------------------------------------|

e|--------------------------------------------------|
B|-10-10-10—10—10—10-10-10—10-10-10-10-10-10—10—10--|
G|--------------------------------------------------|
D|--------------------------------------------------|
A|--------------------------------------------------|
E|--------------------------------------------------|

e|------------------------------------------------------------------|
B|-10-10—12—10—12-10-12—10-12-10-12-10--9—-9—-9--9-12-12—9--9-10-10-|
G|------------------------------------------------------------------|
D|------------------------------------------------------------------|
A|------------------------------------------------------------------|
E|------------------------------------------------------------------|

e|--------------------------------------------------|
B|-10-10-10—10—10—10-10-10—10-10-10-10-10-10—10—10--|
G|--------------------------------------------------|
D|--------------------------------------------------|
A|--------------------------------------------------|
E|--------------------------------------------------|

e|------------------------------------------------------------------|
B|-10-10—12—10—12-10-12—10-12-10-12-10--9—-9—-9--9-12-12—9--9-10-10-|
G|------------------------------------------------------------------|
D|------------------------------------------------------------------|
A|------------------------------------------------------------------|
E|------------------------------------------------------------------|

e|--------------------------------------------------|
B|-10-10-10—10—10—10-10-10—10-10-10-10-10-10—10—10--|
G|--------------------------------------------------|
D|--------------------------------------------------|
A|--------------------------------------------------|
E|--------------------------------------------------|

FADE OUT OR END WITH
e|---12---12---12----|
B|-10--10—--10----10-|
G|-------------------|
D|-------------------|
A|-------------------|
E|-------------------|

************************************

| x Dead note
| / Slide up
| \ Slide down
| (n) Ghost note
| PM Palm mute

************************************
Song info
City Of Blinding Lights
U2
2001
  • Electronic
  • Rock
  • Alternative Rock
  • House
  • Pop Rock
Alternative tracks
Similar songs
Conspiracy of One - The Offspring
Alive - Pearl Jam
Dancing In The Dark - Bruce Springsteen
Midnight At The Oasis - Maria Muldaur

Hi! Hope you enjoy backing track experience.
If you want to help us in the development of the project, feel free to donate!