Get On Your Boots - U2
00:00 / 00:00
Tabs and lyrics
Tunning: Standard (E A D G B e)

Main Riff:
G|----------------------------------------|
D|----------------------------------------|
A|-5-3---0-3-0-5------3---3----3----------|
E|----------------------5---------5-3-3---|


Chorus:
G|------------------------------------
D|------------------------------------
A|------------------------------------
E|-3-3-3-3-3-3-3-3-3-4-4-4-4-4-4-4-4--

G|------------------------------------
D|------------------------------------
A|------------------------------------
E|-3-3-3-3-3-3-3-3-3-4-4-4-4-4-4-4-4--

G|------------------------------------
D|------------------------------------
A|------------------------------------
E|-3-3-3-3-3-3-3-3-3-6-6-6-6-6-6-6-6--

G|------------------------------------
D|------------------------------------
A|------------------6-6-6-6-6-6-6-6-6-
E|-3-3-3-3-3-3-3-3-3------------------

G|------------------
D|------------------
A|-8-8-8-8-8-8-8-8--
E|------------------


Thats my first tab, i hope you will enjoy it :) Pretty, easy song, have fun ! Greetings, langov ;)
Tunning: Standard (E A D G B e)
Intro & Main Riff:

e|---------------------------------------|
B|---------------------------------------|
G|---------------------------------------|
D|---------------------------------------|
A|-5p3----3---5------3---3----3----------|
E|-----5h---5----------5---------5-3-5---|

Pre-chorus:

"You don't know how beautiful..."

G G# G G#
e|-----3--3-3--3-3----4--4-4--4-4----3--3-3--3-3----4--4-4--4-4--|
B|-----3--3-3--3-3----4--4-4--4-4----3--3-3--3-3----4--4-4--4-4--|
G|-----4--4-4--4-4----5--5-5--5-5----4--4-4--4-4----5--5-5--5-5--|
D|-----5--5-5--5-5----6--6-6--6-6----5--5-5--5-5----6--6-6--6-6--|
A|-----5--5-5--5-5----6--6-6--6-6----5--5-5--5-5----6--6-6--6-6--|
E|-----3--3-3--3-3----4--4-4--4-4----3--3-3--3-3----4--4-4--4-4--|

"You don't know how beautiful you are..."

G A# D# F
e|-----3--3-3--3-3----6--6-6--6-6----6--6-6--6-6----8--8--8--8--8-|
B|-----3--3-3--3-3----6--6-6--6-6----8--8-8--8-8---10-10-10-10-10-|
G|-----4--4-4--4-4----7--7-7--7-7----8--8-8--8-8---10-10-10-10-10-|
D|-----5--5-5--5-5----8--8-8--8-8----8--8-8--8-8---10-10-10-10-10-|
A|-----5--5-5--5-5----8--8-8--8-8----6--6-6--6-6----8--8--8--8--8-|
E|-----3--3-3--3-3----6--6-6--6-6----x--x-x--x-x----x--x--x--x--x-|

Repeat the Pre-chorus sequence one more time and finish with a G.

Main Riff with this Mini-solo played over the top:

e|-----8(8)-----8(8)------8(8)-|
B|-9(9)----8(8)------7(7)------|
G|-----------------------------|
D|-----------------------------|
A|-----------------------------|
E|-----------------------------|

Play Pre-Chorus again twice

Break Solo:

e|--------------------------------------------------------------------|
B|-15-----------------------------------------------------------------|
G|-------9--10--9--7-5----9---10-9-7-5----9--10--9-7-5----9-10-12-14--|
D|--------------------------------------------------------------------|
A|--------------------------------------------------------------------|
E|--------------------------------------------------------------------|

After that it's time to finish it off with the chorus riff repeated until the end.
This small hammer-on fill is played during the last lines.
End fill:

e|-----|
B|-----|
G|-5h7-|
D|-----|
A|-----|
E|-----|
Repeat a couple of times.

So ultimately, this is the structure of the song:
1. Intro (Main riff)
2. Verse (palm muted guitar)
3. Chorus
4. Verse
5. Pre-Chorus
6. Mini-solo
7. Verse (palm muted guitar)
8. Chorus
9. Pre-Chorus
10. Chorus
11. Break solo
12. Final Chorus (Hammer-on fills)
Song info
Get On Your Boots
U2
2001
  • Pop
  • Rock
  • Arena Rock
  • Pop Rock
Alternative tracks
Similar songs
Ready Set Go - Tokio Hotel
Lazy Sunday - Small Faces
Hand In My Pocket - Alanis Morissette
I Wont Back Down - Tom Petty

Hi! Hope you enjoy backing track experience.
If you want to help us in the development of the project, feel free to donate!