Invisible - U2
00:00 / 00:00
Tabs and lyrics
Tunning: Nashville (E A D G B E)
Tom: G#


(intro)

(D#)

(During the intro to The Edge is playing in 11 house on B string, while running the riff below)

E|------------------------------------------------------------------|
B|------------------------------------------------------------------|
G|15-17-15-12---15-17-15-12---10-12-10-5---10-12-10-5---8-10-8-12---|
D|------------------------------------------------------------------|
A|------------------------------------------------------------------|
E|------------------------------------------------------------------|

(verse)

D#
It’s like the room just cleared of smoke
G#
I didn’t even want the heart you broke
It’s yours to keep
You just might need one

D#
I finally found my real name
G#
I won’t be me when you see me again
No, I won’t be my father’s son

Fm G#
I’m more than you know
Gm
I’m more than you see here
G#
More than you let me be
Dm
I’m more than you know
G#
A body in a soul
Gm
You don’t see me but you will
G#
I am not invisible

(The Edge does approximately this riff in the chorus (as music is new, I could not
examine the riff unerringly))

E|------------------------------------------------------------------|
B|13-------------------------13----------------------13-------------|
G|---15--(8X)---15-12-(8x)------15-(8x)---15-12-(4x)----15--(4x)----|
D|------------------------------------------------------------------|
A|------------------------------------------------------------------|
E|------------------------------------------------------------------|


(intro)

(That's right)
(I’ll be in the invisible world)

(verse)

D#
I don’t dream, not as such
G#
I don’t even think about you that much
Unless I start to think at all

D#
All those frozen days
And your frozen ways
G#
They melt away your face like snow

(chorus)

Fm G#
I’m more than you know
Gm
I’m more than you see here
G#
I’m more than you let me be
Fm
I’m more than you know
G#
A body in a soul
Gm
You don’t see me but you will
G#
I am not invisible
C
I am here

(Solo)

(F D# Fm C D# Fm A#m)

E|----------------------------------------------------------------|
B|----------------------------------------------------------------|
G|17-15-12-10-8-12---12-10-12-13-12-8-----------------------------|
D|----------------------------------------------------------------|
A|----------------------------------------------------------------|
E|----------------------------------------------------------------|

E|----------------------------------------------------------------|
B|----------------------------------------------------------------|
G|17-15-12-10-8-12---12-10-12-13-12-3-----------------------------|
D|----------------------------------------------------------------|
A|----------------------------------------------------------------|
E|----------------------------------------------------------------|


(Final)

D#
There is no them
There is no them

E|----------------------------------------------------------------|
B|----------------------------------------------------------------|
G|10-10-12-10-5--(2x)---------------------------------------------|
D|----------------------------------------------------------------|
A|----------------------------------------------------------------|
E|----------------------------------------------------------------|

Fm
There’s only us
There’s only us

D#
There is no them
There is no them

E|----------------------------------------------------------------|
B|----------------------------------------------------------------|
G|10-12-10-5--(2x)------------------------------------------------|
D|----------------------------------------------------------------|
A|----------------------------------------------------------------|
E|----------------------------------------------------------------|

Fm
There’s only us
There’s only us

D#
There is no them
There is no them

E|----------------------------------------------------------------|
B|----------------------------------------------------------------|
G|10-10-12-10-5--(2x)---------------------------------------------|
D|----------------------------------------------------------------|
A|----------------------------------------------------------------|
E|----------------------------------------------------------------|

Fm
There’s only you
And there’s only me

D#
There is no them
Song info
Invisible
U2
2001
  • Rock
  • Pop Rock
Alternative tracks
Similar songs
Fool - Chris Rea
All Star - Smash Mouth
One More Light - Linkin Park
Perfect - Simple Plan

Hi! Hope you enjoy backing track experience.
If you want to help us in the development of the project, feel free to donate!