With Or Without You - U2
00:00 / 00:00
Tabs and lyrics
Tunning: Standard (E A D G B e)
-------------------------------------------------------------------------------
(U218) With or Without You - U2
-------------------------------------------------------------------------------
Tabbed by: Jeremy Cobb
Email: kool-aid-king@live.com (Feel free to shoot me an E-mail if u wanna argue
about how the song goes, lol)

There are no good tabs for this song on this site, so i decided that i'll make one
of just the major Riffs in the song :D!

Tuning: Standard

(swells at the beginning of the song)
Those are the notes, just get the rythem by listening to the song.
e|--14--15--17-19--17--15--14------------------------------------------------|
B|---------------------------------------------------------------------------|
G|---------------------------------------------------------------------------|
D|---------------------------------------------------------------------------|
A|---------------------------------------------------------------------------|
E|---------------------------------------------------------------------------|

Main Riff
e|---------------------------------------------------------------------------|
B|-------15---------15-------15----------------------------------------------|
G|--12---------12-------12---------------------------------------------------|
D|-------------------------------16--------17--------------------------------|
A|------------------------------------17-------------------------------------|
E|---------------------------------------------------------------------------|

Riff B
e|--------0------------------------------------------------------------------|
B|--------0------------------------------------------------------------------|
G|---------------------------------------------------------------------------|
D|---12----------------------------------------------------------------------|
A|---------------------------------------------------------------------------|
E|---------------------------------------------------------------------------|


************************************

| / slide up
| \ slide down
| h hammer-on
| p pull-off
| ~ vibrato
| + harmonic
| x Mute note
| b Bend
| pb Pre-bend
| br Bend release
| pbr Pre-bend release
| brb Bend release bend

************************************
Tunning: Standard (E A D G B e)
With or Without You - U2

This is simply how I like to play it & I think it's pretty accurate and has a nice feel to it.

Chords used are (EADGBe)

D xx0232
A x02220
Bm 224432 (barre 2nd fret)
G 320003

Just picking each cord;

D A
e|----------2-------------2-------------0-----------0------------|
B|----3-------------3--------------2-----------2-----------------|
G|-------2-------------2-------------2-----------2---------------|
D|--0------------0-----------------------------------------------|
A|-------------------------------0----------0--------------------|
E|---------------------------------------------------------------|

Bm G
e|-----------2-----------2-----------------3-------------3-------|
B|------3-----------3-----------------0-------------0------------|
G|--------4-----------4------------------0-------------0---------|
D|---------------------------------------------------------------|
A|---2-----------2-----------------------------------------------|
E|----------------------------------3-------------3--------------|


[Verse 1]

D A Bm
See the stone set in your eyes
G D
See the thorn twist in your side
A Bm G
I’ll wait for you

(same chords progression)

Sleight of hand and twist of fate
On a bed of nails she makes me wait
And I wait without you

With or without you
With or without you

Through the storm we reach the shore
You give it all but I want more
And I'm waiting for you

With or without you
With or without you
I can't live
With or without you

And you give yourself away
And you give yourself away
And you give
And you give
And you give yourself away

My hands are tied
My body bruised, she's got me with
Nothing to win and
Nothing left to lose

And you give yourself away
And you give yourself away
And you give
And you give
And you give yourself away

With or without you
With or without you
I can't live
With or without you

With or without you
With or without you
I can't live
With or without you
With or without you
Tunning: Standard (E A D G B e)
*************************
-U2
-The Joshua Tree
-With Or Without You
*************************

[Intro, Verse 1 and 2]
Guitar 1: (Bono)

e|----10------------10-----------------|
B|------------10------------10---------|
G|----------------11------------11-----|
D|--------12------------12-------------|
A|-------------------------------------|
E|-------------------------------------|


[Intro, Verse 1 and 2]
Guitar 2: (The Edge)

e|--14--------15----17--------19----17--15--14---------|
B|-----------------------------------------------------|
G|-----------------------------------------------------|
D|-----------------------------------------------------|
A|-----------------------------------------------------|
E|-----------------------------------------------------|


[Chorus]
Guitar 1: (Bono)

e|----10------------10-----------------|
B|------------10------------10---------|
G|----------------11------------11-----|
D|--------12------------12-------------|
A|-------------------------------------|
E|-------------------------------------|


[Chorus]
Guitar 2: (The Edge)

e|-------10-----10---10------10-------------------------|
B|----8------8------------8-------7---------------------|
G|------------------------------------------------0-----|
D|---------------------------------------0--0-----------|
A|------------------------------------------------------|
E|------------------------------------------------------|


[Verse 3]
Guitar1: (Bono)

e|----10-------------10-----------------|
B|------------10-------------10---------|
G|----------------11-------------11-----|
D|--------12-------------12-------------|
A|--------------------------------------|
E|--------------------------------------|


[Verse 3]
Guitar 2: (The Edge)

e|-------10-----10---10------10-------------------------|
B|----8------8------------8-------7---------------------|
G|------------------------------------------------0-----|
D|---------------------------------------0--0-----------|
A|------------------------------------------------------|
E|------------------------------------------------------|


[Solo, Outro]
Guitar 1: (Bono)

e|-----2-2-2-2-----0-0-0-0------2-2-2-2-----3-3-3-3---------------|
B|--3-----------3-----------3------------3------------------------|
G|----------------------------------------------------------------|
D|----------------------------------------------------------------|
A|----------------------------------------------------------------|
E|----------------------------------------------------------------|

For the solo you can also strum these chords (Find the Pattern)

D Dsus2 D/G Dsus4/G
e|--2-2-2-2--|--0-0-0-0--|--2-2-2-2--|--3-3-3-3--|
B|--3-3-3-3--|--3-3-3-3--|--3-3-3-3--|--3-3-3-3--|
G|--2-2-2-2--|--2-2-2-2--|--0-0-0-0--|--0-0-0-0--|
D|--0-0-0-0--|--0-0-0-0--|--0-0-0-0--|--0-0-0-0--|
A|-----------|-----------|-----------|-----------|
E|-----------|-----------|-----------|-----------|


[Outro]
Guitar 2: (The Edge)

e|-------10-----10---10------10-------------------------|
B|----8------8------------8-------7---------------------|
G|------------------------------------------------0-----|
D|---------------------------------------0--0-----------|
A|------------------------------------------------------|
E|------------------------------------------------------|
Tunning: Standard (E A D G B e)
-------------------------------------------------------------------------------
With or Without you - U2
-------------------------------------------------------------------------------
Tabbed by:Snygging200
Email:Jonas-sjodin@hotmail.com

Intro:

e|--10----10----10----10----10----10----10----10-----|
B|----10----10----10----10----10----10----10----10---|
G|------9-----9-----9-----9-----9-----9-----9-----9--|
D|---------------------------------------------------|
A|---------------------------------------------------|
E|---------------------------------------------------|

Repeat:22 times


e|----10---10-10---10--------------|
B|--8----8-------8----7------------|
G|------------------------------0--|
D|------------------------0--------|
A|---------------------------------|
E|---------------------------------|

Repeat 8 times

e|----10---10-10---10----|
B|--8----8-------8----7--|
G|-----------------------|
D|-----------------------|
A|-----------------------|
E|-----------------------|

e|14--10--12--14--10----14--10--12--14--|
B|--------------------------------------|
G|--------------------------------------|
D|--------------------------------------|
A|--------------------------------------|
E|--------------------------------------|




e|--2--0----2--0--|
B|--0--0----0--0--|
G|----------------|
D|----------------|
A|----------------|
E|----------------|

e|----10---10-10---10--------------|
B|--8----8-------8----7------------|
G|------------------------------0--|
D|------------------------0--------|
A|---------------------------------|
E|---------------------------------|

Repeat 4 times

e|----10---10-10---10----|
B|--8----8-------8----7--|
G|-----------------------|
D|-----------------------|
A|-----------------------|
E|-----------------------|

e|--10-10--10--10-10-----10--10--10-10--|
B|----------------------9---9---9--8----|
G|--------------------------------------|
D|--------------------------------------|
A|--------------------------------------|
E|--------------------------------------|

Pause
e|--14--14-----|
B|---------15--|
G|-------------|
D|-------------|
A|-------------|
E|-------------|


e|----10---10-10---10--------------|
B|--8----8-------8----7------------|
G|------------------------------0--|
D|------------------------0--------|
A|---------------------------------|
E|---------------------------------|

Repeat:4 times

e|----10---10-10---10----|
B|--8----8-------8----7--|
G|-----------------------|
D|-----------------------|
A|-----------------------|
E|-----------------------|


e|--10----10----10----10----10----10----10----10-----|
B|----10----10----10----10----10----10----10----10---|
G|------9-----9-----9-----9-----9-----9-----9-----9--|
D|---------------------------------------------------|
A|---------------------------------------------------|
E|---------------------------------------------------|

Repeat:4 times


e|--2-2-2-2-0-0-0-0-2-2-2-2-3-3-3-3-2-2-2-2--|
B|-------------------------------------------|
G|-------------------------------------------|
D|-------------------------------------------|
A|-------------------------------------------|
E|-------------------------------------------|




e|----10---10-10---10--------------|
B|--8----8-------8----7------------|
G|------------------------------0--|
D|------------------------0--------|
A|---------------------------------|
E|---------------------------------|

Repeat:4 times


e|----10---10-----10-10-10-10-12-10-10-10-10--|
B|--7----7----7-8-----------------------------|
G|--------------------------------------------|
D|--------------------------------------------|
A|--------------------------------------------|
E|--------------------------------------------|



************************************

| / slide up
| \ slide down
| h hammer-on
| p pull-off
| ~ vibrato
| + harmonic
| x Mute note
| b Bend
| pb Pre-bend
| br Bend release
| pbr Pre-bend release
| brb Bend release bend

************************************
Song info
With Or Without You
U2
2001
  • Electronic
  • Electro House
  • House
Alternative tracks
Similar songs
A Whiter Shade of pale - Annie Lennox
Hero - Enrique Iglesias
I Cant Get No Satisfaction - The Rolling Stones

Hi! Hope you enjoy backing track experience.
If you want to help us in the development of the project, feel free to donate!