Atomic Punk - Van Halen
00:00 / 00:00
Tabs and lyrics
Tunning: Standard (E A D G B e)
Atomic Punk Tab by Van Halen, www.Ultimate-Guitar.Com

Standard Tuning

Start off the intro by muting the strings,by rubbing your hands off the strings
w w
e--------------------------|----------|--------|
B-------------------3------|----------|--------|
G----------------4--2------|--7/\/\/\-|--------|
D----------------4--0------|----------|--------|
A----7-10-9~~~~~~2---------|----------|--------|
E--0-----------------------|----------|--0\\\\-|

e--------------------------------------------|
B----3-------------------3-------------------|
G----2-------------------2-------------------|
D----0----0-0-0-0--------0----0-0-0-0--------|
A-----------------3p2p0---------------3p2p0--|
E--------------------------------------------|
(pm----) (pm-------------|

e------------------------|
B------------------3-----|
G---------------4--2-----|
D---------------4--0-----|
A----7-10-9~~~~~2--------|
E--0---------------------|

e------------------------|
B------------------3-----|
G---------------4--2-----|
D---------------4--0-----|
A----7-10-9~~~~~2--------|
E--0---------------------|

e--------------------------------------------|
B----3-------------------3-------------------|
G----2-------------------2-------------------|
D----0----0-0-0-0--------0----0-0-0-0--------|
A-----------------3p2p0---------------3p2p0--|
E--------------------------------------------|
(pm----) (pm-------------|

e------------------------|
B------------------3-----|
G---------------4--2-----|
D---------------4--0-----|
A----7-10-9~~~~~2--------|
E--0---------------------|

e------------------------|
B------------------3-----|
G---------------4--2-----|
D---------------4--0-----|
A----7-10-9~~~~~2--------|
E--0---------------------|

Nobody rules these streets at night like me, the atomic punk
e-------------------------------------------------------------|
B-------------------------------------------------------------|
G-9-----------------------------7-----------------------------|
D-9-----------------------------7-----------------------------|
A-7-----------------------------5-----------------------------|
E-------------------------------------------------------------|

e------------------------|
B------------------3-----|
G---------------4--2-----|
D---------------4--0-----|
A----7-10-9~~~~~2--------|
E--0---------------------|

e------------------------|
B------------------3-----|
G---------------4--2-----|
D---------------4--0-----|
A----7-10-9~~~~~2--------|
E--0---------------------|

e--------------------------------------------|
B----3-------------------3-------------------|
G----2-------------------2-------------------|
D----0----0-0-0-0--------0----0-0-0-0--------|
A-----------------3p2p0---------------3p2p0--|
E--------------------------------------------|
(pm----) (pm-------------|

e------------------------|
B------------------3-----|
G---------------4--2-----|
D---------------4--0-----|
A----7-10-9~~~~~2--------|
E--0---------------------|

e------------------------|
B------------------3-----|
G---------------4--2-----|
D---------------4--0-----|
A----7-10-9~~~~~2--------|
E--0---------------------|

Nobody rules these streets at night like me, the atomic punk
e-------------------------------------------------------------|
B-------------------------------------------------------------|
G-9-----------------------------7-----------------------------|
D-9-----------------------------7-----------------------------|
A-7-----------------------------5-----------------------------|
E-------------------------------------------------------------|

Now to get that geekish sound on the guitar
-use you hand by rubbing the strings
-put your other hand on all the stings
on the twelfth fret
-and use a flanger

Notation used:
w-whammy bar
pm-palm mute
~-vibrato
p-pull off
/\-(also used as the whammy bar)

I promise all ya'll i'll get the solo later!
(That's a promise!)
Tunning: Standard (E A D G B e)
Band- Van halen
Song- Atomic Punk

Gtr I (Eb Ab Db Gb Bb Eb) - 'Edward Van Halen - Rhythm / Lead w/dist'

Intro
Q=198
4/4
Gtr I
With Phaser set for slow sweep rub edge of pickhand over bridge pickup
while muting strings with fretting hand.

E E E E E E E E E E E E E E E E E E E E E E E E E E E E E E E E
|-x-x-x-x-x-x-x-x-|-x-x-x-x-x-x-x-x-|-x-x-x-x-x-x-x-x-|-x-x-x-x-x-x-x-x-|
|-x-x-x-x-x-x-x-x-|-x-x-x-x-x-x-x-x-|-x-x-x-x-x-x-x-x-|-x-x-x-x-x-x-x-x-|
|-x-x-x-x-x-x-x-x-|-x-x-x-x-x-x-x-x-|-x-x-x-x-x-x-x-x-|-x-x-x-x-x-x-x-x-|
|-x-x-x-x-x-x-x-x-|-x-x-x-x-x-x-x-x-|-x-x-x-x-x-x-x-x-|-x-x-x-x-x-x-x-x-|
|-x-x-x-x-x-x-x-x-|-x-x-x-x-x-x-x-x-|-x-x-x-x-x-x-x-x-|-x-x-x-x-x-x-x-x-|
|-x-x-x-x-x-x-x-x-|-x-x-x-x-x-x-x-x-|-x-x-x-x-x-x-x-x-|-x-x-x-x-x-x-x-x-|


|-3-| |-3-|
E E E E E E E E E E E E E E E E E E E E E E E E E E E E E E E E E E
|-x-x-x-x-x-x-x-x-|-x-x-x-x-x-x-x-x-|-x-x-x-x-x-x-x-x-|-x-x-x-x-x-x-x-x-x-x---|
|-x-x-x-x-x-x-x-x-|-x-x-x-x-x-x-x-x-|-x-x-x-x-x-x-x-x-|-x-x-x-x-x-x-x-x-x-x---|
|-x-x-x-x-x-x-x-x-|-x-x-x-x-x-x-x-x-|-x-x-x-x-x-x-x-x-|-x-x-x-x-x-x-x-x-x-x---|
|-x-x-x-x-x-x-x-x-|-x-x-x-x-x-x-x-x-|-x-x-x-x-x-x-x-x-|-x-x-x-x-x-x-x-x-x-x---|
|-x-x-x-x-x-x-x-x-|-x-x-x-x-x-x-x-x-|-x-x-x-x-x-x-x-x-|-x-x-x-x-x-x-x-x-x-x---|
|-x-x-x-x-x-x-x-x-|-x-x-x-x-x-x-x-x-|-x-x-x-x-x-x-x-x-|-x-x-x-x-x-x-x-x-x-x---|


|-3-| |-3-|
E E E E E E E E E E E E E E E E E E E E E E E E E E E E E E E E E E
|-x-x-x-x-x-x-x-x-|-x-x-x-x-x-x-x-x-|-x-x-x-x-x-x-x-x-|-x-x-x-x-x-x-x-x-x-x---|
|-x-x-x-x-x-x-x-x-|-x-x-x-x-x-x-x-x-|-x-x-x-x-x-x-x-x-|-x-x-x-x-x-x-x-x-x-x---|
|-x-x-x-x-x-x-x-x-|-x-x-x-x-x-x-x-x-|-x-x-x-x-x-x-x-x-|-x-x-x-x-x-x-x-x-x-x---|
|-x-x-x-x-x-x-x-x-|-x-x-x-x-x-x-x-x-|-x-x-x-x-x-x-x-x-|-x-x-x-x-x-x-x-x-x-x---|
|-x-x-x-x-x-x-x-x-|-x-x-x-x-x-x-x-x-|-x-x-x-x-x-x-x-x-|-x-x-x-x-x-x-x-x-x-x---|
|-x-x-x-x-x-x-x-x-|-x-x-x-x-x-x-x-x-|-x-x-x-x-x-x-x-x-|-x-x-x-x-x-x-x-x-x-x---|


E E E E E E E E E E E E E E E E E E E E E E E E E E E E E E Q
|-x-x-x-x-x-x-x-x-|-x-x-x-x-x-x-x-x-|-x-x-x-x-x-x-x-x-|-x-x-x-x-x-x-----||
|-x-x-x-x-x-x-x-x-|-x-x-x-x-x-x-x-x-|-x-x-x-x-x-x-x-x-|-x-x-x-x-x-x-----||
|-x-x-x-x-x-x-x-x-|-x-x-x-x-x-x-x-x-|-x-x-x-x-x-x-x-x-|-x-x-x-x-x-x-----||
|-x-x-x-x-x-x-x-x-|-x-x-x-x-x-x-x-x-|-x-x-x-x-x-x-x-x-|-x-x-x-x-x-x-----||
|-x-x-x-x-x-x-x-x-|-x-x-x-x-x-x-x-x-|-x-x-x-x-x-x-x-x-|-x-x-x-x-x-x-----||
|-x-x-x-x-x-x-x-x-|-x-x-x-x-x-x-x-x-|-x-x-x-x-x-x-x-x-|-x-x-x-x-x-x-7/--||


~~~~~~~~~
Q E E E E Q +Q Q Q Q Q E E E E Q
|----------------|---------------|----------------|
|----------------|---------------|----------------|
|----------------|---------4--7--|----------------|
|----------------|---------4--7--|----------------|
|----7-10---7-9--|-(9)--2--2--5--|----7-10---7-9--|
|-0--------------|------0--------|-0--------------|


\1.5___/ \1.5/ \1.5/ \1.5/
|------------6:5-------------|
+E E +S +S +E +E +E +E +E +E
|------------------------------------------------------|
|------------------------------------------------------|
|-----7-----(7)-(7)-(7)----(7)-(7)----(7)-(7)----(7)---|
|------------------------------------------------------|
|-(9)--------------------------------------------------|
|------------------------------------------------------|


~~~~~~~~~
Q E E E E Q +Q S S E Q Q
|----------------|------------------|
|----------------|------------------|
|----------------|------------4--9--|
|----------------|------x-x-2-4--9--|
|----7-10---7-9--|-(9)--2-2-2-2--7--|
|-0--------------|------0-0-0-------|


\3.5______/ \6_____________/
Q E E E E Q +E +S S Q +Q +E +E
|--------------------|-------------------------------||
|--------------------|-------------------------------||
|--------------------|-------------------------------||
|--------------------|-------------------------------||
|----7-10---7-9------|-(9)-(9)-----------------------||
|-0------------------|-----------0----(0)--(0)-(0)---||


Verse 1
PM---------| PM------|
H. E E E E E E E E E E +H. E E E E E E E E E E
|---------------|-----------------|--------------|-----------------|
|-3-------------|---------------3-|-(3)----------|-----------------|
|-2-------------|---------------2-|-(2)----------|-----------------|
|-0-------(0)-0-|-0-0-0-0-------0-|-(0)------0-0-|-0-0-0-0---------|
|---------------|---------3p2-0---|--------------|---------3p2p0---|
|---------------|-----------------|--------------|---------------0-|


~~~~~~~~~ ~~~~~~~~~
+Q E E E E Q +Q Q Q Q Q E E E E Q +Q Q Q Q
|------------------|---------------|----------------|---------------|
|------------------|---------------|----------------|---------------|
|------------------|---------4--7--|----------------|---------7--4--|
|------------------|---------4--7--|----------------|---------7--4--|
|------7-10---7-9--|-(9)--2--2--5--|----7-10---7-9--|-(9)-----5--2--|
|-(0)--------------|------0--------|-0--------------|------0--------|


PM------|
H Q E E E E E E E E E E +H. E E E E E E E E E E
|-------------|-----------------|--------------|-----------------|
|-------------|---------------3-|-(3)----------|-----------------|
|-7----2------|---------------2-|-(2)----------|-----------------|
|-7----0--0-0-|-0-0-0-0-------0-|-(0)------0-0-|-0-0-0-0---------|
|-5-----------|---------3p2-0---|--------------|---------3p2p0---|
|-------------|-----------------|--------------|---------------0-|


~~~~~~~~~
+Q E E E E Q +Q S S E Q Q
|------------------|------------------|
|------------------|------------------|
|------------------|------------4--7--|
|------------------|------x-x-2-4--7--|
|------7-10---7-9--|-(9)--2-2-2-2--5--|
|-(0)--------------|------0-0-0-------|


\1.5 \6
Q E E E E Q +E +S S Q +Q +Q
|----------------|-----------------------------||
|----------------|-----------------------------||
|----------------|-----------------------------||
|----------------|-----------------------------||
|----7-10---7-9--|-(9)---(9)-------------------||
|-0--------------|-------------0---(0)--(0)----||


Chorus
W Q Q Q Q H H +H. Q
|-0--------|-0--0--0-----|------0----|-(0)-----------|
|-0--------|-0--0--0-----|------0----|-(0)-----------|
|-9--------|----------9S=|=7---------|---------------|
|-9--------|----------9S=|=7---------|---------------|
|-7--------|----------7S=|=5---------|---------------|
|-0--------|-------------|-----------|----------10\--|

as intro but use Flanger
~~~~~~~~~
E E E E E E E E E E E E E E E E Q E E E E Q +Q S S E Q Q
|-x-x-x-x-x-x-x-x-|-x-x-x-x-x-x------|----------------|------------------|
|-x-x-x-x-x-x-x-x-|-x-x-x-x-x-x------|----------------|------------------|
|-x-x-x-x-x-x-x-x-|-x-x-x-x-x-x------|----------------|------------4--7--|
|-x-x-x-x-x-x-x-x-|-x-x-x-x-x-x------|----------------|------x-x-2-4--7--|
|-x-x-x-x-x-x-x-x-|-x-x-x-x-x-x------|----7-10---7-9--|-(9)--2-2-2-2--5--|
|-x-x-x-x-x-x-x-x-|-x-x-x-x-x-x-7s15-|-0--------------|------0-0-0-------|


\2.5_________________/
~
Q E E E E Q +E Q +S +S Q +E +E Q E E E E Q
|----------------|----------------------------------|----------------|
|----------------|----------------------------------|----------------|
|----------------|-----12------(12)-(12)p0--(0)-(0)-|----------------|
|----------------|----------------------------------|----------------|
|----7-10---7-9--|-(9)------------------------------|----7-10---7-9--|
|-0--------------|----------------------------------|-0--------------|


\1/ \1/ \1/
~~~
+Q S S E Q Q Q E E E E Q E E Q +E +E +Q
|------------------|----------------|-----------------------------------||
|------------------|----------------|-----------------------------------||
|------------4--7--|----------------|-----------------------------------||
|------2-2-2-4--7--|----------------|---------()-()-()--||
|-(9)--2-2-2-2--5--|----7-10---7-9s=|=14-12-----------------------------||
|------0-0-0-------|-0--------------|-----------------------------------||


Verse 2
PM--------| PM--|
H. E E E E E E E E E E +H. E E E E E E E E E E
|-------------|-----------------|--------------|-----------------|
|-3-----------|---------------3-|-(3)----------|-----------------|
|-2-----------|---------------2-|-(2)----------|-----------------|
|-0-------0-0-|-0-0-0-0-------0-|-(0)------0-0-|-0-0-0-0---------|
|-------------|---------3p2-0---|--------------|---------3p2p0---|
|-------------|-----------------|--------------|---------------0-|


~~~~~~~~~ ~~~~~~~~~
+Q E E E E Q +Q S S E Q Q Q E E E E Q +Q Q Q Q
|------------------|------------------|----------------|---------------|
|------------------|------------------|----------------|---------------|
|------------------|------------4--7--|----------------|---------7--4--|
|------------------|------x-x-2-4--7--|----------------|---------7--4--|
|------7-10---7-9--|-(9)--2-2-2-2--5--|----7-10---7-9--|-(9)--2--5--2--|
|-(0)--------------|------0-0-0-------|-0--------------|------0--------|


PM----| PM
H. E E E E E E E E E E +H. E E E E E E E E E E
|-------------|-----------------|--------------|-------------------|
|-------------|---------------3-|-(3)----------|---3---------------|
|-7-------7-7-|-7-7-x-x-------2-|-(2)----------|---2---------------|
|-7-------7-7-|-7-7-x-x-------0-|-(0)------0-0-|-0-0-(0)-0---------|
|-5-------5-5-|-5-5-x-x-3p2-0---|--------------|-----------3p2p0---|
|-------------|-----------------|--------------|-----------------0-|


~~~~~~~~~ ~~~~~~~~~
+Q E E E E Q +Q S S E Q Q Q E E E E Q +Q E E Q Q
|------------------|------------------|----------------|----------------||
|------------------|------------------|----------------|----------------||
|------------------|------------4--7--|----------------|----------7--4--||
|------------------|------------4--7--|----------------|----------7--4--||
|------7-10---7-9--|-(9)--2-2-2-2--5--|----7-10---7-9--|-(9)--2-2-5--2--||
|-(0)--------------|------0-0-0-------|-0-------x------|------0-0-------||


Chorus
W +H. +E E H H
|-0----------|-(0)------------|------0----|
|-0----------|-(0)------------|------0----|
|-9----------|-(9)------(9)s7-|-7---------|
|-9----------|-(9)------(9)s7-|-7---------|
|-7----------|-(7)------(7)s5-|-5---------|
|---------0--|-(0)------------|-----------|
H Q Q


+H. Q E E E E E E E E E E E E Q E a E
|-(0)------------|-x-x-x-x-x-x-x-x-|-x-x-x-x-0--0------||
|-(0)------------|-x-x-x-x-x-x-x-x-|-x-x-x-x-0--0-xs15-||
|----------------|-x-x-x-x-x-x-x-x-|-x-x-x-x-x--x------||
|----------------|-x-x-x-x-x-x-x-x-|-x-x-x-x-x--x------||
|----------------|-x-x-x-x-x-x-x-x-|-x-x-x-x-----------||
|----------/10\--|-x-x-x-x-x-x-x-x-|-x-x-x-x-----------||


Guitar Solo
~~~~~ ~~~~~ TP TP TP
|--3--|
E Q. E Q E E E E. S Q Q Q
|-12---------12--------12-|-------12-15b17==15r-15-14-12-|
|----15b17------15b17-----|-15b17------------------------|
|-------------------------|------------------------------|
|-------------------------|------------------------------|
|-------------------------|------------------------------|
|-------------------------|------------------------------|


~~~~~ ~~~~~
|--3--|
Q E E +E E E E E
|--------12--------------------------|
|-15b17-----15b17==(15)r-12-15p12----|
|---------------------------------15-|
|------------------------------------|
|------------------------------------|
|------------------------------------|


~~~~~ ~~~~~
|--3--| |--3--| |--3--|
E E E E E E E E E E +E E Q. S S Q.
|--------------------------------------------|-----------17------------|
|-12-------15p12----12-----------------------|-0-20b22------17-20b23---|
|----15p14-------15----15p14-12b12.5==(12)r/-|-------------------------|
|--------------------------------------------|-------------------------|
|--------------------------------------------|-------------------------|
|--------------------------------------------|-------------------------|


~~~~~~~~~~~~~ ~~~~~
E E +E +E E E +E +E
|-17----------------------17----------------------|
|----20b23r(20)b22==(20)r----20b23r(20)b23==(20)r-|
|-------------------------------------------------|
|-------------------------------------------------|
|-------------------------------------------------|
|-------------------------------------------------|


E E E E E E E E E E +E +E E +E a a a E E
|-17-------17-------17-------17-------|-17----------------------------------------|
|----20b23----20b23----20b23----20b23-|----20b24==(20)r(20)-17-(17)\-----------17-|
|-------------------------------------|------------------------------------/18----|
|-------------------------------------|----------------------------------x--------|
|-------------------------------------|--------------------------------x----------|
|-------------------------------------|------------------------------x------------|


E +E E E +E +E E E +E +E E E +E +E E E
|-19b21r(19)-------------------------------|-----------------------------------------|
|------------15-17b19==(17)r(17)----15b17==|=(15)r(15)-------------------------------|
|--------------------------------14--------|-----------12-14b16==(14)r(14)-----------|
|------------------------------------------|-------------------------------12-14b16==|
|------------------------------------------|-----------------------------------------|
|------------------------------------------|-----------------------------------------|


+E +E E E E E E E
|--------------------------|
|--------------------------|
|--------------------------|
|=(14)r(14)----------------|
|-----------10-12-9-10-7-9-|
|--------------------------|

~~~
|----3----|
E E E E Q E. +S E Q. Q Q Q
|----------------------|--------------------------|
|----------------------|--------------------------|
|----------------------|---9b12---9b12-9b12-9b12==|
|----------------------|--------------------------|
|-5-7-4-5-2s=10--(10)\-|--------------------------|
|----------------------|-x------------------------|


|--3---|
+E +E E Q +E E E E +Q E E +E E E +S S
|---------------------12--------|--------15--------------15---------------|
|------------------------17b19==|=(17)r-----17b19==(17)r----15b17r(15)p12-|
|-(9)r(9)p7-9--(9)s14-----------|-----------------------------------------|
|-------------------------------|-----------------------------------------|
|-------------------------------|-----------------------------------------|
|-------------------------------|-----------------------------------------|


~~~~~~~~ TPTPTPTPTPTPTP TPTPTP
|-3-| |-3-| |-3-|
E E Q +E E Q E E E E E E Q E E E
|------------------------|----------------------|
|----12------------------|----------------------|
|-14----12--(12)---------|----------------------|
|------------------------|----------------------|
|-----------------x--x\--|-------5-5-5-5--7-7-7-|
|----------------15-15\--|-7-7-7----------------|


TPTPTPTPTPTPTPTPTPTPTPTP TPTPTPTPTPTPTPTPTPTPTPTP
|-3-| |-3-| |-3-| |-3-| |-3-| |-3-| |-3-| |-3-|
E E E E E E E E E E E E E E E E E E E E E E E E
|-------------------------|--------------------------|
|-------------------------|--------------------------|
|-------------------------|-------------6-6-6-7-7-7--|
|-------------6-6-6-7-7-7-|-8-8-8-9-9-9--------------|
|-8-8-8-9-9-9-------------|--------------------------|
|-------------------------|--------------------------|


TPTPTPTPTPTP ~~~~ ~~~~
|-3-| |-3-|
E E E E E E E +Q. E Q +E +E +Q +E
|--------------------------|----------------------------------|
|--------------------------|----------------------------------|
|-8-8-8-9-9-9-9b12==(9)r---|---11b14===(11)-(11)-(11)--(11)r\-|
|--------------------------|-x--------------------------------|
|--------------------------|-x--------------------------------|
|--------------------------|----------------------------------|


E E E E E +E Q E E E E Q E E Q E E H
|--------------------------|----------------|-------------||
|-7------------------------|----------------|-------------||
|---7---9-7b7.5==(7)r------|----------------|-------------||
|-----9--------------------|-4-4---4----4---|----4--------||
|----------------------x\--|-2-2---2----2---|----2--------||
|---------------------10\--|----------------|-------------||


E E E E E E E E E E E E E E E E E E E E E E E E E E E E E E E E
|-x-x-x-x-x-x-x-x-|-x-x-x-x-x-x-x-x-|-x-x-x-x-x-x-x-x-|-x-x-x-x-x-x-x-x-|
|-x-x-x-x-x-x-x-x-|-x-x-x-x-x-x-x-x-|-x-x-x-x-x-x-x-x-|-x-x-x-x-x-x-x-x-|
|-x-x-x-x-x-x-x-x-|-x-x-x-x-x-x-x-x-|-x-x-x-x-x-x-x-x-|-x-x-x-x-x-x-x-x-|
|-x-x-x-x-x-x-x-x-|-x-x-x-x-x-x-x-x-|-x-x-x-x-x-x-x-x-|-x-x-x-x-x-x-x-x-|
|-x-x-x-x-x-x-x-x-|-x-x-x-x-x-x-x-x-|-x-x-x-x-x-x-x-x-|-x-x-x-x-x-x-x-x-|
|-x-x-x-x-x-x-x-x-|-x-x-x-x-x-x-x-x-|-x-x-x-x-x-x-x-x-|-x-x-x-x-x-x-x-x-|
as intro

E E E E E E E E E E E E E E E E
|-x-x-x-x-x-x-x-x-|-x-x-x-x-x-x-x-x-|
|-x-x-x-x-x-x-x-x-|-x-x-x-x-x-x-x-x-|
|-x-x-x-x-x-x-x-x-|-x-x-x-x-x-x-x-x-|
|-x-x-x-x-x-x-x-x-|-x-x-x-x-x-x-x-x-|
|-x-x-x-x-x-x-x-x-|-x-x-x-x-x-x-x-x-|
|-x-x-x-x-x-x-x-x-|-x-x-x-x-x-x-x-x-|


|-3-| |-3-| |-3-| |-3-| |-3-| |-3-| |-3-| |-3--|
E E E E E E E E E E E E E E E E E E E E E E E +E
|-x-x-x-x-x-x-x-x-x-x-x-x-|-x-x-x-x-x-x-x-x-x-x---------||
|-x-x-x-x-x-x-x-x-x-x-x-x-|-x-x-x-x-x-x-x-x-x-x---------||
|-x-x-x-x-x-x-x-x-x-x-x-x-|-x-x-x-x-x-x-x-x-x-x---------||
|-x-x-x-x-x-x-x-x-x-x-x-x-|-x-x-x-x-x-x-x-x-x-x---------||
|-x-x-x-x-x-x-x-x-x-x-x-x-|-x-x-x-x-x-x-x-x-x-x---------||
|-x-x-x-x-x-x-x-x-x-x-x-x-|-x-x-x-x-x-x-x-x-x-x-7-(7)\--||


Pre-Verse
~~~~~~~~~
Q E E E E Q +Q Q Q Q
|-----------------|---------------|
|-----------------|---------------|
|-----------------|---------4--7--|
|-----------------|---------4--7--|
|-----7-10---7-9--|-(9)--x--2--5--|
|-\0--------------|------0--------|


~~
Q E E E E E. +S E E E E E E E E
|--------------------|----------------------------|
|--------------------|------------------x-------|
|--------------------|----------------------|
|--------------------|--------------------------------|
|----7-10---7-9--(9)s|=12-----------------------------|
|-0------------------|--------------------------------|


~~~~~~~~~
Q E E E E Q +Q S S E Q Q
|----------------|------------------|
|----------------|------------------|
|----------------|------------4--7--|
|----------------|------x-x-x-4--7--|
|----7-10---7-9--|-(9)--2-2-2-2--5--|
|-0--------------|------0-0-0-------|


\1.5______/
~~
Q E E E E E. +S E S S H +E +E
|--------------------|---------------------------||
|--------------------|---------------------------||
|--------------------|--------0--------(0)-(0)---||
|--------------------|------0--------------------||
|----7-10---7-9--(9)s|=19------------------------||
|-0------------------|---------------------------||


Verse 3
PM----------| PM--------------|
H. E E E E E E E E E E +H E E E E E E E E E E E E
|-------------|-----------------|----------------|-----------------|
|-3-----------|---------------3-|-(3)------------|-----------------|
|-2-----------|---------------2-|-(2)------------|-----------------|
|-0-------0-0-|-0-0-0-0-------0-|-(0)----0-0-0-0-|-0-0-0-0---------|
|-------------|---------3p2-0---|----------------|---------3p2p0---|
|-------------|-----------------|----------------|---------------0-|


~~~~~~~~~
+Q E E E E Q +Q S S E Q Q
|------------------|------------------|
|------------------|------------------|
|------------------|------------4--7--|
|------------------|------2-2-2-4--7--|
|------7-10---7-9--|-(9)--2-2-2-2--5--|
|-(0)--------------|------0-0-0-------|


\3.5______________/ \1
Q E E E E E +S S a a E +Q +S +S E E Q
|-------------------------|------------------------------|
|-------------------------|------------------------------|
|-------------------------|-----9-(9)--(9)-(9)-----------|
|-------------------------|---x----------------10-10-x---|
|----7-10---7-9-----(9)---|-x------------------10-10-x---|
|-0-----------------------|---------------------8--8-0---|


PM----------| PM------|
H +E E E E E E E E E E E E +H Q E E E E E E E E E E
|----------------|-----------------|---------------|-----------------|
|----------------|---------------3-|-(3)-----------|-----------------|
|-7----(7)-------|-x-x-x-x-------2-|-(2)-----------|-2-2-2-----------|
|-7----(7)-------|-7-7-7-7-------0-|-(0)----0--x-0-|-0-0-0-0---------|
|-5----(5)-5-5-5-|-5-5-5-5-3p2-0---|---------------|---------3p2p0---|
|----------------|-----------------|---------------|---------------0-|


~~~~~~~~~
+Q E E E E Q +Q S S E Q Q Q E E E E Q
|------------------|------------------|----------------|
|------------------|------------------|----------------|
|------------------|------------4--7--|----------------|
|------------------|------2-2-2-4--7--|----------------|
|------7-10---7-9--|-(9)--2-2-2-2--5--|----7-10---7-9--|
|-(0)--------------|------0-0-0-------|-0--------------|


\1.5_____/ \1.5/ \1.5/ \1.5/ \1.5/
+E a a a Q +E +E +E +E +E
|--------------------------------------------------------||
|--------------------------------------------------------||
|-----------12------(12)-(12)----(12)----(12)----(12)----||
|---------x----------------------------------------------||
|-(9)---x------------------------------------------------||
|-----x--------------------------------------------------||


Outro
W +H. S S E Q H. +H. S S E
|-0--------|-(0)------------|----0-------|-(0)--------------|
|-0--------|-(0)------------|----0-------|-(0)--------------|
|-9--------|-(9)------7-7-7-|-7----------|----------6-6-6---|
|-9--------|-(9)------7-7-7-|-7----------|----------7-7-7---|
|-7--------|-(7)------5-5-5-|-5----------|----------4-4-4---|
|----------|----------------|------------|--------------0---|


Q H. +H.. E +W
|----0-------|-(0)--------!0-|-(0)----|
|----0-------|-(0)--------!0-|-(0)----|
|-6----------|------------!5-|-(5)----|
|-7----------|------------!7-|-(7)----|
|-4----------|------------!3-|-(3)----|
|-0----------|------------!0-|-(0)----|


E E E E Q Q E E E E Q E E Q E E H
|-x-x-x-x--------|----------------|-------------||
|-x-x-x-x--------|----------------|-------------||
|-x-x-x-x--------|----------------|-------------||
|-x-x-x-x--------|-4-4---4----4---|----4--------||
|-x-x-x-x-xS=x\--|-2-2---2----2---|----2--------||
|-x-x-x-x-xS=x\--|----------------|-------------||


Free Time
\2______/
W +W +Q +H +Q
|----------:------------:-------------------:
|----------:------------:-------------------:
|----------:------------:-------------------:
|-3--------:-(3)--------:-(3)--(3)-----(3)--:
|-3--------:-(3)--------:-(3)---------------:
|-1--------:-(1)--------:-(1)---------------:
+W


\2____/ \2______/
+Q +Q +Q +Q +H +Q +Q
|----------------------:-------------------:
|----------------------:-------------------:
|----------------------:-------------------:
|-(3)--(3)---(3)--(3)--:-(3)-----(3)--(3)--:
|-(3)------------------:-(3)---------------:
|-(1)------------------:-(1)---------------:
+W +W


~~~~~~~~~~
+H. +Q +Q E. +S H
|---------------|-------------------*|
|---------------|-------------------*|
|---------------|-------------------*|
|-(3)------(3)--|-(3)--2--(2)/------*|
|-(3)-----------|-(3)--2--(2)/------*|
|-(1)-----------|-(1)--0------------*|
Song info
Atomic Punk
Van Halen
2001
  • Rock
  • Arena Rock
  • Classic Rock
  • Glam
  • Hard Rock
  • Heavy Metal
  • Pop Rock
  • Power Pop
Alternative tracks
Similar songs
Smokin In The Boys Room - Mötley Crüe
So Far Away - Avenged Sevenfold
Long Away - Queen
Only A Lad - Oingo Boingo
Keeping The Faith - Billy Joel

Hi! Hope you enjoy backing track experience.
If you want to help us in the development of the project, feel free to donate!