Walk Dont Run - Ventures
00:00 / 00:00
Tabs and lyrics
Tunning: Standard (E A D G B e)
[Intro]

e|-------------------------------||.
B|-------------------------------||
G|--9-9-9----7-7-7----5-5-5----4-||
D|--9-9-9----7-7-7----5-5-5----4-||
A|--7-7-7----5-5-5----3-3-3----2-||
E|-------------------------------||.

e|--------------------------------------------------------------------|
B|-------------------1~~~0--------------------------------------------|
G|----2-----------0-2------2----------0-2-0---------------------------|
D|--2--------0-2-3---------------0-2-3-----3-2-/-1-\-2-0-2-3-2-0--2---|
A|------0-2-3---------------0-2-3--------------------------------3--3-|
E|--------------------------------------------------------------------|

After first time:

e|-------------|
B|-------------|
G|-1-1-1-1-1-1-|
D|-2-2-2-2-2-2-|
A|-------------|
E|-------------|

After second time:


e|---------------|
B|---------------|
G|---------------|
D|----0-2-0---0--|
A|-3--------3---3|
E|---------------|

Second part:


e|-------------------------------------------------------------------------|
B|--------------------1-1-1-1-1-1--1-1--1~----------0---0------1-----------|
G|--------------0-----0-0-0-0-0-0--2-2--2~---2---2----1---1----2~~---------|
D|--------0-2-3--------------------------------3---3----2---2--------------|
A|---0-2-3---------------------------------------3---3-------------/7-5-3-2|
E|-3-----------------------------------------------------------------------|

Repeat and end witn this:

e|---------|
B|-1-3-3-1-|
G|-0-4-4-0-|
D|---5-5\2-|
A|---------|
E|---------|


Reapeat again and play the final ending:

e|---------8--|
B|-1-1-1-1-8--|
G|-0-0-0-0-9--|
D|-2-2-2-2/10-|
A|------------|
E|------------|



************************************

| / Slide up
| \ Slide down
| ~ Vibrato

************************************
Tunning: Standard (E A D G B e)
This is in standard tuning

e
b
g
d
a
e

Intro (2x) (strum pattern not shown)

E----5----3----1----0-|
B----5----3----1----0-|
G----6----4----2----1-|
D----7----5----3----2-|
A----7----5----3----2-|
E----x----x----x----x-|

Verse (At the end of the run play the intro over again)

E-------------------------------------------------------------------------------------------------0--|
B--------------------------------1-0--------------------------------------------------------------0--|
G----0-0-0-2----------------0-2-------0----------------0-2-0--------------------------------------1--|
D--------------------0-2-3----------------------0-2-3---------3-2-2-0-2-0-2-3-2-0-----2-----0-----2--|
A-------------0-2-3----------------------0-2-3-------------------------------------3-----3-----2--2--|
E-------------------------------------------------------------------------------------------------0--|

Verse 2

E------------------------------------------------------------------------------------------------|
B--------------------------------1-0-------------------------------------------------------------|
G----0-0-0-2----------------0-2-------0----------------0-2-0-------------------------------------|
D--------------------0-2-3----------------------0-2-3---------3-2-2-0-2-0-2-3-2-0-----2-----0----|
A-------------0-2-3----------------------0-2-3-------------------------------------3-----3-----3-|
E------------------------------------------------------------------------------------------------|

E---------------------------------------0----0-|
B---------------------------------------1----1-|
G------------------------------0-0-0-0--0----2-|
D-----------------------0-2-3-----------2----2-|
A----------------0-2-3------------------3----0-|
E-3-3-3-3-3-3-3-------------------------x----x-|
Tunning: Standard (E A D G B e)
Tuning: Standard

Intro:
3x 3x 3x 2x
e|--5----3----1----0--|
B|--5----3----1----0--|
G|--6----4----2----1--|
D|--7----5----3----2--|
A|--7----5----3----2--|
E|--x----x----x----x--|play twice


1st part:
e|---------------------------|
B|----2-----------------1-0--|
G|--2---------------0-2------|
D|------------0-2-3----------|
A|------0-2-3----------------|
E|---------------------------|

e|-----------------------------------------------------------------|
B|----2------------------------------------------------------------|
G|--2---------------0-2-0------------------------------------------|
D|------------0-2-3-------3-2-0-2-5-/-3-\-5-0-2-3-2-0---2/3---0----|
A|------0-2-3-----------------------------------------3-----3---3--|
E|-----------------------------------------------------------------|

e|---------------|
B|---------------|
G|-1-1-1-1-1-1-1-|
D|-2-2-2-2-2-2-2-|
A|---------------|
E|---------------|


2nd part
e|---------------------------|
B|----2-----------------1-0--|
G|--2---------------0-2------|
D|------------0-2-3----------|
A|------0-2-3----------------|
E|---------------------------|

e|-----------------------------------------------------------------|
B|----2------------------------------------------------------------|
G|--2---------------0-2-0------------------------------------------|
D|------------0-2-3-------3-2-0-2-5-/-3-\-5-0-2-3-2-0---2/3---0----|
A|------0-2-3-----------------------------------------3-----3---3--|
E|-----------------------------------------------------------------|

e|--------------------------------------------------------------------------------|
B|--------------------1-1-1-1-1-1--1---1--1~--------------0-----0------1~---------|
G|---------------0~~0-0-0-0-0-0-0--2-1-2--2~--2-----2-------1-----1----2~---------|
D|---------0-2-3----------------------2----------3-----3-------2-----2------------|
A|---0-2-3-----------------------------------------3-----3----------------7-5-3-2-|
E|-3------------------------------------------------------------------------------|


3rd part
e|---------------------------|
B|----2-----------------1-0--|
G|--2---------------0-2------|
D|------------0-2-3----------|
A|------0-2-3----------------|
E|---------------------------|

e|----------------------------------------------------1-3-3-1----------|
B|----2-----------------------------------------------0-4-4-0----------|
G|--2---------------0-2-0-------------------------------5-5-2----------|
D|------------0-2-3-------3-2-0-2-5-/-3-\-5-0-2-3-2-0------------------|
A|------0-2-3----------------------------------------------------------|
E|---------------------------------------------------------------------|

Play the intro and first 2 parts of the song again and end with this:


e|-----------8--|
B|--1-1-1-1--8--|
G|--0-0-2-2--9--|
D|--2-2-2-2--10-|
A|--------------|
E|--------------|
Tunning: Nashville (E A D G B E)
Walk Don\'t Run
The Ventures
Tabbed by thelordofguitar

[Intro]

E|--5-----3-----1-----0----|
B|--5-----3-----1-----0----|
G|--6-x3--4-x3--2-x3--1-x3-| for the intro the strumming pattern is down
D|--7-----5-----3-----2----| up down
A|--7-----5-----3-----2----|
E|--5-----3-----1-----0----|

then play this: clean sound

E|----------------|----------------|----------------|----------------|
B|----------------|------1--0------|--------------0-|1---0-----------|
G|-2--------------|-0-2--------2---|----------2---0-|2---0---2-------|
D|----------0-2-3-|----------------|------0-2-3-----|--------3----2-1|
A|---0-2-3--------|---------------0|-2-3------------|----------------|
E|----------------|----------------|----------------|----------------|

E|----------------|----------------|----------------|----------------|
B|----------------|----------------|----------------|----------------|
G|---0------------|----------------|--------1--1-1-1|-1-1-------2----|
D|-2-2--------0-2-|-3--2---0--2--0-|-2----2-2--2-2-2|-2-2------------|
A|----------------|-----------3----|---3------------|-------2-0---0-2|
E|----------------|----------------|----------------|----------------|

E|----------------|----------------|----------------|----------------|
B|----------------|1--0------------|---------1--0---|----------------|
G|-----------0-2--|------2---------|-------0-2--0---|--0-----0-------|
D|----0-2-3-------|----------------|0-2-3----------3|--2-1-2-2-----0-|
A|-3--------------|---------0-2-3--|----------------|----------------|
E|----------------|----------------|----------------|----------------|

E|----------------|----------------|----------------|----------------|
B|----------------|----------------|----------------|1--1-1-1-1-1----|
G|----0-----------|----------------|-----0------0---|0--0-0-0-0-0----|
D|2-3-2--0--2--0-2|---0-----------0|-2-3------------|--------------2-|
A|----------3-----|-3---3---0-2-3--|----------------|----------------|
E|----------------|-------3--------|----------------|----------------|

E|-----------------|----------------|----------------|----------------|
B|1-----1----1-----|----------------|----0-----0-----|---1----1-------|
G|2-----2----2-~---|-----2-----2----|------1------1--|---2----2-------|
D|---2-------------|-------3------3-|--------2------2|------------2---|
A|-----------------|---------3------|3---------------|----------------|
E|-----------------|----------------|----------------|----------------|

E|----------------|----------------|----------------|----------------|
B|----------------|----------------|-1--0-----------|---------0-1--0-|
G|-----------2----|------------0-2-|-------2--------|--0---2--0-2--0-|
D|0---------------|-----0-2-3------|----------------|--0-2-3---------|
A|---3---2------0-|2-3-------------|----------0-2-3-|----------------|
E|----------------|----------------|----------------|----------------|

E|----------------|----------------|---------------- 1|-------------0----|
B|----------------|------------1---|--3-3----------- ||--1-1--1-1---1----|
G|-2---------0----|------------0---|--0-0-----------*||--0-0--2-2---0----|
D|-3---2-1-2-2---0|-2-3-2-0--------|----------------*||-------------2----|
A|----------------|----------------|---------------- ||-------------3----|
E|----------------|-----------*----|------*--------- ||s-------------s---|

thats it enjoy



************************************

| x Dead note
| ~ Bend

************************************
Tunning: Standard (E A D G B e)
WALK DON'T RUN


The Ventures



INTRO


x x x x x x x x x x x x x x x x
e|---------------------------------|---------------------------------|
B|---------------------------------|---------------------------------|
G|---------------------------------|---------------------------------|
D|---------------------------------|---------------------------------|
A|---------------------------------|---------------------------------|
E|---------------------------------|---------------------------------|




X x x X x X x x X x
e|---------------------------------|---------------------------------|
B|---------------------------------|---------------------------------|
G|---------------------------------|---------------------------------|
D|---------------------------------|---------------------------------|
A|---------------------------------|---------------------------------|
E|---------------------------------|---------------------------------|




A G F E
e|---------------------------------|---------------------------------|
B|---------------------------------|---------------------------------|
G|---------------------------------|---------------------------------|
D|---------------------------------|---------------------------------|
A|---------------------------------|---------------------------------|
E|---------------------------------|---------------------------------|




A G F E
e|---------------------------------|---------------------------------|
B|---------------------------------|---------------------------------|
G|---------------------------------|-----------------------------2---|
D|---------------------------------|---------------------2-----------|
A|---------------------------------|---------------------------------|
E|---------------------------------|---------------------------------|




VERSE


A G F E
e|---------------------------------|---------------------------------|
B|---------------------------------|-------------1-----------0-------|
G|---------------------------------|-----0---2---2-------------------|
D|---------------------0---2---3---|---------------------------------|
A|-----0---2---3-------------------|---------------------------------|
E|---------------------------------|---------------------------------|




A G F E
e|---------------------------------|---------------------------------|
B|---------------------------------|-----0---1-------0---------------|
G|-2-------------------0---1---2---|-----0---2-------0-------2-------|
D|---------------------0---2---3---|-------------------------3-------|
A|-----0---2---3-------------------|---------------------------------|
E|---------------------------------|---------------------------------|




C G
e|---------------------------------|---------------------------------|
B|---------------------------------|---------------------------------|
G|---------------------------------|---------------------------------|
D|-2-\-1---2---2-------------------|-----0---2---3---2-------0-------|
A|---------------------------------|---------------------------------|
E|---------------------------------|---------------------------------|



C E
e|---------------------------------|---------------------------------|
B|---------------------------------|---------------------------------|
G|-----------------------------1---|-----1---1---1---1---1---1-------|
D|---------0H2P0-------0-------2---|-----2---2---2---2---2---2---2---|
A|-3---------------3---------------|---------------------------------|
E|---------------------------------|---------------------------------|




VERSE


A G F E
e|---------------------------------|---------------------------------|
B|---------------------------------|-------------1-----------0-------|
G|-2-------------------------------|-----0---2---2-------------------|
D|---------------------0---2---3---|---------------------------------|
A|-----0---2---3-------------------|---------------------------------|
E|---------------------------------|---------------------------------|




A G F E
e|---------------------------------|---------------------------------|
B|---------------------------------|-----0---1-----------------------|
G|-2-------------------------------|-----0---2---0-------------------|
D|---------------------0---2---3---|-------------------------3-------|
A|-----0---2---3-------------------|---------------------------------|
E|---------------------------------|---------------------------------|




C G
e|---------------------------------|---------------------------------|
B|---------------------------------|---------------------------------|
G|---------------------------------|---------------------------------|
D|-2-\-1-------2-------------------|-----0---2---3---2-------0-------|
A|---------------------------------|---------------------------------|
E|---------------------------------|---------------------------------|



C
e|---------------------------------|---------------------------------|
B|---------------------------------|---------------------------------|
G|---------------------------------|---------------------------------|
D|---------0H2P0-------0-----------|---------------------0---2---3---|
A|-3---------------3-----------3---|---------0---2---3---------------|
E|---------------------------------|-----3---------------------------|




BRIDGE


C
e|---------------------------------|---------------------------------|
B|---------------------------------|-----1-------1---1---1---1---1---|
G|-0-----------0-------------------|-----0-------0---0---0---0---0---|
D|---------------------------------|-----2-------2---2---2---2---2---|
A|---------------------------------|---------------------------------|
E|---------------------------------|---------------------------------|




Am
e|---------------------------------|---------------------------------|
B|-----1-----------1---------------|-1-W-----------------------------|
G|-----2-----------2---------------|-2-W-----------------------------|
D|-----2-------2-------------------|-2-W-----------------------------|
A|---------------------------------|---------------------------------|
E|---------------------------------|---------------------------------|




F E
e|---------------------------------|---------------------------------|
B|---------------------------------|-0-----------0-------------------|
G|-2-----------2-------------------|-----1---------------1-----------|
D|-----3---------------3-----------|---------2---------------2-------|
A|---------3---------------3-------|---------------------------------|
E|---------------------------------|---------------------------------|




Am E
e|---------------------------------|---------------------------------|
B|-1-------------------------------|---------------------------------|
G|-2-------------------------------|---------------------------------|
D|-2-------------------------0H2---|---------0-----------------------|
A|---------------------------------|-----------------3-------2-------|
E|---------------------------------|---------------------------------|




VERSE


A G F E
e|---------------------------------|---------------------------------|
B|---------------------------------|-------------1-----------0-------|
G|-2-------------------------------|-----0---2---2-------------------|
D|---------------------0---2---3---|---------------------------------|
A|-----0---2---3-------------------|---------------------------------|
E|---------------------------------|---------------------------------|




A G F E
e|---------------------------------|---------------------------------|
B|---------------------------------|-----0---1-------0---------------|
G|-2-------------------------------|-----0---2-------0-------2-------|
D|---------------------0---2---3---|-------------------------3-------|
A|-----0---2---3-------------------|---------------------------------|
E|---------------------------------|---------------------------------|




C G
e|---------------------------------|---------------------------------|
B|---------------------------------|---------------------------------|
G|-0-------------------------------|---------------------------------|
D|-2-\-1---2---2-------------------|-----0---2---3---2-------0-------|
A|---------------------------------|---------------------------------|
E|---------------------------------|---------------------------------|



C G
e|---------------------------------|---------------------------------|
B|---------------------------------|-----1-----------3-------3-------|
G|---------------------------------|-----0-----------0-------0-------|
D|---------0H2P0-------------------|-----2-----------0-------0-------|
A|-3---------------3---------------|-----3-----------2-------2-------|
E|---------------------------------|---------------------------------|




DRUMS SOLO


C N.C.

X x x X x X x x X x
e|---------------------------------|---------------------------------|
B|-1-------------------------------|---------------------------------|
G|-0-------------------------------|---------------------------------|
D|-2-------------------------------|---------------------------------|
A|-3-------------------------------|---------------------------------|
E|---------------------------------|---------------------------------|




X x x X x x x x x x x x x x x x x x x x x
e|---------------------------------|---------------------------------|
B|---------------------------------|---------------------------------|
G|---------------------------------|---------------------------------|
D|---------------------------------|---------------------------------|
A|---------------------------------|---------------------------------|
E|---------------------------------|---------------------------------|




INTERLUDE


A G F E
e|---------------------------------|---------------------------------|
B|---------------------------------|---------------------------------|
G|---------------------------------|---------------------------------|
D|---------------------------------|---------------------------------|
A|---------------------------------|---------------------------------|
E|---------------------------------|---------------------------------|




A G F E
e|---------------------------------|---------------------------------|
B|---------------------------------|---------------------------------|
G|---------------------------------|-----------------------------2---|
D|---------------------------------|---------------------2-----------|
A|---------------------------------|---------------------------------|
E|---------------------------------|---------------------------------|




VERSE


A G F E
e|---------------------------------|---------------------------------|
B|---------------------------------|-------------1-----------0-------|
G|---------------------------------|-----0---2---2-------------------|
D|---------------------0---2---3---|---------------------------------|
A|-----0---2---3-------------------|---------------------------------|
E|---------------------------------|---------------------------------|




A G F E
e|---------------------------------|---------------------------------|
B|---------------------------------|-----0---1-------0---------------|
G|-2---------------------------2---|-----0---2-------0-------2-------|
D|---------------------0---2---3---|-------------------------3-------|
A|-----0---2---3-------------------|---------------------------------|
E|---------------------------------|---------------------------------|




C G
e|---------------------------------|---------------------------------|
B|---------------------------------|---------------------------------|
G|---------------------------------|---------------------------------|
D|-2-\-1---2---2-------------------|-----0---2---3---2-------0-------|
A|---------------------------------|---------------------------------|
E|---------------------------------|---------------------------------|



C E
e|---------------------------------|---------------------------------|
B|---------------------------------|---------------------------------|
G|---------------------------------|-----1---1---1---1---1---1---1---|
D|---------0H2P0-------0-----------|-----2---2---2---2---2---2---2---|
A|-3---------------3---------------|---------------------------------|
E|---------------------------------|---------------------------------|




VERSE


A G F E
e|---------------------------------|---------------------------------|
B|---------------------------------|-------------1-----------0-------|
G|-2-------------------------------|-----0---2---2-------------------|
D|---------------------0---2---3---|---------------------------------|
A|-----0---2---3-------------------|---------------------------------|
E|---------------------------------|---------------------------------|




A G F E
e|---------------------------------|---------------------------------|
B|---------------------------------|---------------------------------|
G|-2-------------------------------|-----0---2-------0---------------|
D|---------------------0---2---3---|-------------------------3-------|
A|-----0---2---3-------------------|---------------------------------|
E|---------------------------------|---------------------------------|




C G
e|---------------------------------|---------------------------------|
B|---------------------------------|---------------------------------|
G|---------------------------------|---------------------------------|
D|-2-\-1-------2-------------------|-----0---2---3---2-------0-------|
A|---------------------------------|---------------------------------|
E|---------------------------------|---------------------------------|



C
e|---------------------------------|---------------------------------|
B|---------------------------------|---------------------------------|
G|---------------------------------|---------------------------------|
D|---------0H2P0-------0-----------|---------------------0---2---3---|
A|-3---------------3-----------3---|---------0---2---3---------------|
E|---------------------------------|-----3---------------------------|




BRIDGE


C
e|---------------------------------|---------------------------------|
B|---------------------------------|-----1-------1---1---1---1---1---|
G|-0-----------0-------------------|-----0-------0---0---0---0---0---|
D|---------------------------------|-----2-------2---2---2---2---2---|
A|---------------------------------|---------------------------------|
E|---------------------------------|---------------------------------|




Am
e|---------------------------------|---------------------------------|
B|-----1-----------1---------------|-1-W-----------------------------|
G|-----2-----------2---------------|-2-W-----------------------------|
D|-----2-------2-------------------|-2-W-----------------------------|
A|---------------------------------|---------------------------------|
E|---------------------------------|---------------------------------|




F E
e|---------------------------------|---------------------------------|
B|---------------------------------|-0-----------0-------------------|
G|-2-----------2-------------------|-----1---------------1-----------|
D|-----3---------------3-----------|---------2---------------2-------|
A|---------3---------------3-------|---------------------------------|
E|---------------------------------|---------------------------------|




Am E
e|---------------------------------|---------------------------------|
B|-1-------------------------------|---------------------------------|
G|-2-------------------------------|---------------------------------|
D|-2-------------------------0H2---|---------0-----------------------|
A|---------------------------------|-----------------3-------2-------|
E|---------------------------------|---------------------------------|




VERSE


A G F E
e|---------------------------------|---------------------------------|
B|---------------------------------|-------------1-----------0-------|
G|-2-------------------------------|-----0---2---2-------------------|
D|---------------------0---2---3---|---------------------------------|
A|-----0---2---3-------------------|---------------------------------|
E|---------------------------------|---------------------------------|




A G F E
e|---------------------------------|---------------------------------|
B|---------------------------------|-----0---1-------0---------------|
G|-2-------------------------------|-----0---2-------0-------2-------|
D|---------------------0---2---3---|-------------------------3-------|
A|-----0---2---3-------------------|---------------------------------|
E|---------------------------------|---------------------------------|




C G
e|---------------------------------|---------------------------------|
B|---------------------------------|---------------------------------|
G|---------------------------------|---------------------------------|
D|-2-\-1---2---2-------------------|-----0---2---3---2-------0-------|
A|---------------------------------|---------------------------------|
E|---------------------------------|---------------------------------|




C F C
e|-0-------0-------1-------1-------|-----8-W-------------------------|
B|-1-------1-------1-------1-------|-----8-W-------------------------|
G|-0-------0-------2-------2-------|-----9-W-------------------------|
D|-2-------2-------3-------3-------|----10-W-------------------------|
A|---------------------------------|---------------------------------|
E|---------------------------------|---------------------------------|
Tunning: Standard (E A D G B e)
Rhythm intro
Am G F E
|5-5-5---3-3-3---1-1-1---0---0-0-0---------------------------|
|5-5-5---3-3-3---1-1-1---0---0-0-0---------------------------|
|5-5-5---4-4-4---2-2-2---1---1-1-1---------------------------|
|7-7-7---5-5-5---3-3-3---2---2-2-2---------------------------|
|7-7-7---5-5-5---3-3-3---2---2-2-2---------------------------|
|5-5-5---3-3-3---1-1-1---0---0-0-0---------------------------|


Lead
Riff 1
|------------------------------------------------------------|
|-----------------------1------------------------------------|
|-----2-------------0-2--------------------------------------|
|-2-----------0-2-3------------------------------------------|
|-------0-2-3------------------------------------------------|
|------------------------------------------------------------|

Riff 2
|------------------------------------------------------------|
|------------------------------------------------------------|
|-2-------------0-2-0----------------------------------------|
|---------0-2-3-------2--------------------------------------|
|---0-2-3----------------------------------------------------|
|------------------------------------------------------------|

Riff 3
|------------------------------------------------------------|
|------------------------------------------------------------|
|------------------------------------------------------------|
|-2-2-0-2---0-2-3-2-0-----h2p0----2--------------------------|
|-----------------------3------3----3------------------------|
|------------------------------------------------------------|

Riff 4
|------------------------------------------------------------|
|------------------------------------------------------------|
|----------------------------------------2--2--2--2--2-2-2-2-|
|---------0-2-3----5--5--5--5--5-5-5-5-----------------------|
|---0-2-3----------------------------------------------------|
|-3----------------------------------------------------------|

|------------------------------------------------------------|
|------------------------------------------------------------|
|-2-----2----4-----4----5~~~~--------------------------------|
|---3-----3----6-----6---------------------------------------|
|-----3----------7-------------7-7-5-5-3-3-2-2---------------|
|------------------------------------------------------------|

Playing order

Riff 1, Riff 2, Pause, Riff 1, Riff 2, Riff 3, Riff 4, Pause, Repeat
Song info
Walk Dont Run
Ventures
2001
  • Rock
  • Instrumental
  • Rock & Roll
  • Surf
Alternative tracks
Similar songs
Cocaine - Eric Clapton
Only The Lonely - Roy Orbison
Willie The Wimp - Stevie Ray Vaughan
DanceOn - The Shadows

Hi! Hope you enjoy backing track experience.
If you want to help us in the development of the project, feel free to donate!