Hash Pipe - Weezer
00:00 / 00:00
Tabs and lyrics
Tunning: Standard (E A D G B e)
[Intro/Verse]

e|------------------|
B|------------------|
G|-2-2-4-5--2-2-4-5-| Repeat a lot.
D|-2-2-4-5--2-2-4-5-|
A|-0-0-2-3--0-0-2-3-|
E|------------------|
pm__________________


[Pre-Chorus]

e|---------------------------------------------------|
B|---------------------------------------------------|
G|-7-7-7-7-7-7-7-7---------------------7-7-7-7-7-7-7-|
D|-7-7-7-7-7-7-7-7--7-7-9-10--7-7-9-10-7-7-7-7-7-7-7-|
A|-5-5-5-5-5-5-5-5--7-7-9-10--7-7-9-10-5-5-5-5-5-5-5-|
E|------------------5-5-7--8--5-5-7--8---------------|


[Chorus]

e|---------------------------------------------------|
B|---------------------------------------------------|
G|-----------------------7-7-7-7-7-7-7-7-5-5-5-5-5-5-|
D|-3-3-3-3-3-2-2-2-2-2-2-7-7-7-7-7-7-7-7-5-5-5-5-5-5-|
A|-3-3-3-3-3-2-2-2-2-2-2-5-5-5-5-5-5-5-5-3-3-3-3-3-3-|
E|-1-1-1-1-1-0-0-0-0-0-0-----------------------------|

e|-------------------------|
B|-------------------------|
G|-7-7-7-4-4-4-4-4-4-4-4-4-|
D|-7-7-7-4-4-4-4-4-4-4-4-4-|
A|-5-5-5-2-2-2-2-2-2-2-2-2-|
E|-------------------------|

Go back to intro, verse and chorus


[Verse]

e|------------------|
B|------------------|
G|-2-2-4-5--2-2-4-5-| Repeat a lot.
D|-2-2-4-5--2-2-4-5-|
A|-0-0-2-3--0-0-2-3-|
E|------------------|
pm__________________


[Chorus]

e|---------------------------------------------------|
B|---------------------------------------------------|
G|-----------------------7-7-7-7-7-7-7-7-5-5-5-5-5-5-|
D|-3-3-3-3-3-2-2-2-2-2-2-7-7-7-7-7-7-7-7-5-5-5-5-5-5-|
A|-3-3-3-3-3-2-2-2-2-2-2-5-5-5-5-5-5-5-5-3-3-3-3-3-3-|
E|-1-1-1-1-1-0-0-0-0-0-0-----------------------------|

e|-------------------------|
B|-------------------------|
G|-7-7-7-4-4-4-4-4-4-4-4-4-|
D|-7-7-7-4-4-4-4-4-4-4-4-4-|
A|-5-5-5-2-2-2-2-2-2-2-2-2-|
E|-------------------------|


[Post-chorus]

(In the last two chorus)

e|-----------------------|
B|-----------------------|
G|-----------------------|
D|-0-0-0-0-0-0-0-0-0-0-0-|
A|-2-2-2-2-2-2-2-2-2-2-2-|
E|-3-3-3-3-3-3-3-3-3-3-3-|


[Solo]

E|--------------------------------------------------|
B|-13-13-13-13-12-12-12-12-10-10-10-10-8-8-8-8------|
G|--------------------------------------------------|
D|-10-10-10-10-9--9--9--9--7--7--7--7--5-5-5-5------|
A|--------------------------------------------------|
E|--------------------------------------------------|

E|-12-12-12-12-10-10-10-10-8-8-8-8-7-7-7-7----------|
B|--------------------------------------------------|
G|-9--9--9--9--7--7--7--7--5-5-5-5-4-4-4-4----------|
D|--------------------------------------------------|
A|--------------------------------------------------|
E|--------------------------------------------------|

E|-15-15-15-15-14-14-14-14-12-12-12-12-10-10-10-----|
B|--------------------------------------------------|
G|-12-12-12-12-11-11-11-11-9--9--9--9--7--7--7------|
D|--------------------------------------------------|
A|--------------------------------------------------|
E|--------------------------------------------------|

E|--------------------------------------------------|
B|-12-12-12-12-10-10-10-10-12-12-12-12-10-10-10-10--|
G|--------------------------------------------------|
D|-9--9--9--9--7--7--7--7--9--9--9--9--7--7--7--7---|
A|--------------------------------------------------|
E|--------------------------------------------------|
Tunning: Standard (E A D G B e)
-------------------------------------------------------------------------------
HASH PIPE - Weezer
-------------------------------------------------------------------------------
from the green album (2001)

By: Jake Shenker
Montreal, Quebec
shenkj@hotmail.com

The first single from the new album. An amazing song, simple to play.

Intro / verse (palm-muted)

e|---------------------------------------------------------------------------|
B|---------------------------------------------------------------------------|
G|--2-2-4-5------------------------------------------------------------------|
D|--2-2-4-5------------------------------------------------------------------|
A|--0-0-2-3------------------------------------------------------------------|
E|---------------------------------------------------------------------------|

Chorus

Whoa, come on and kick me, whoa, come on and kick me
e|---------------------------------------------------------------------------|
B|---------------------------------------------------------------------------|
G|-7--------------------------2-2-4-5---7-------------------------------------|
D|-7--------------------------2-2-4-5---7-------------------------------------|
A|-5--------------------------0-0-2-3---5-------------------------------------|
E|---------------------------------------------------------------------------|
(Whoa-oa) Come on and kick me, (whoa-oa) You got your problems
e|---------------------------------------------------------------------------|
B|---------------------------------------------------------------------------|
G|-10------------------------------9-----------------------------------------|
D|-10------------------------------9-----------------------------------------|
A|--8------------------------------7-----------------------------------------|
E|--8------------------------------7-----------------------------------------|

(Whoa-oa) I got my hash pipe, (Whoa-oa) You got your big cheese
e|---------------------------------------------------------------------------|
B|---------------------------------------------------------------------------|
G|-7------------------------------5------------------------------------------|
D|-7------------------------------5------------------------------------------|
A|-5------------------------------3------------------------------------------|
E|-5------------------------------3------------------------------------------|

I got my hash pipe I got my hash pipe
e|---------------------------------------------------------------------------|
B|---------------------------------------------------------------------------|
G|-4-------------------------------------------------------------------------|
D|-4---------------------------5---------------------------------------------|
A|-2---------------------------5---------------------------------------------|
E|-2---------------------------3---------------------------------------------|

Solo (with wah-wah)

e|---------------------------------------------------------------------------|
B|--13-12-10--8---------------13-12-10--8---13-12--13-12---------------------|
G|---x--x--x--x--9--7--5--4----x--x--x--x----x--x---x--x---------------------|
D|--10--9--7--5--x--x--x--x---10--9--7--5---10--9--10--9---------------------|
A|---------------7--5--3--2--------------------------------------------------|
E|---------------------------------------------------------------------------|

Tunning: Standard (E A D G B e)
*Hash Pipe*
Green Album
Geffin Records
*2001*


P.M.--------------------------------------------|
|-------------------------|--------------------------|
|-------------------------|--------------------------|
|-------------------------|--------------------------|
|-2--0--4--5--2--0--4--5--|--2--0--4--5--2--0--4--5--|
|-0--0--2--3--0--0--2--3--|--0--0--2--3--0--0--2--3--|
|-------------------------|-----------------------3--|
*repeat*

Pre-Chorus:
|-----------------------|---------------|
|-----------------------|---------------|
|-7----7----7--7--7--7--|-7--7--7--7--7-|
|-7----7----7--7--7--7--|-7--7--7--7--7-|
|-5----5----5--5--0--5--|-5--5--5--5--5-|
|-5----5----5--5--0--5--|-5--5--5--5--5-|

|--------------------------||
|--------------------------||
|--------------------------||
|-7--7--9--10--7--7--9-----||
|-7--7--9--10--7--7--9--10-||
|-5--5--7---8--5--5--7---8-||

Chorus:
let ring throughout
|----------------------------------------------------------|
|----------------------------------------------------------|
|-10--------------9---------------7---------------5--------|
|-10--------------9---------------7---------------5--------|
|--8--------------7---------------5---------------3--------|
|--8--------------7---------------5---------------3--------|

|---------------------------------------------------|
|---------------------------------------------------|
|-4-----4-----4--4--4--4-----4--4--4--4--4--4--4--4-|
|-4-----4-----4--4--4--4-----4--4--4--4--4--4--4--4-|
|-2-----2-----2--2--0--2-----2--2--2--2--2--2--2--2-|
|-2-----2-----2--2--0--2-----2--2--2--2--2--2--2--2-|

Guitar Solo:
(w/wah-wah)
|-8--8--8--8--7--7--7--7--5--5--5--5--3--3--3--3--|
|-8--8--8--8--7--7--7--7--5--5--5--5--3--3--3--3--|
|-------------------------------------------------|
|-------------------------------------------------|
|-------------------------------------------------|
|-------------------------------------------------|

|-/-12--12--12--12--10--10--10--10--8--8--8--8--7--7--7--7-|
|-/-12--12--12--12--10--10--10--10--8--8--8--8--7--7--7--7-|
|----------------------------------------------------------|
|----------------------------------------------------------|
|----------------------------------------------------------|
|----------------------------------------------------------|

|-/-15-15-15-15-14-14-14-14-12-12-12-12-10-10-10-10-|
|-/-15-15-15-15-14-14-14-14-12-12-12-12-10-10-10-10-|
|---------------------------------------------------|
|---------------------------------------------------|
|---------------------------------------------------|
|---------------------------------------------------|

|-/-19-19-19-19-17-17-17-17-19-19-19-19-17-17-17-17-|
|-/-19-19-19-19-17-17-17-17-19-19-19-19-17-17-17-17-|
|---------------------------------------------------|
|---------------------------------------------------|
|---------------------------------------------------|
|---------------------------------------------------|

This is a very simple song. If you've got questions, comments, corrections, or requests,
email me at: weezerville@hotmail.com
Song info
Hash Pipe
Weezer
2001
  • Rock
  • Pop Rock
Alternative tracks
Similar songs
Summer Of 69 - Bryan Adams
Ill Be Waiting - Lenny Kravitz
Dear God - XTC

Hi! Hope you enjoy backing track experience.
If you want to help us in the development of the project, feel free to donate!