Minds Eye - Wolfmother
00:00 / 00:00
Tabs and lyrics
Tunning: Standard (E A D G B e)
ok this is my first tab. i hope u enjoy



PAUL EGGINS egghouse

Intro
0:12 - 0:40

[play twice first time]
e|---------------------------------------------------------------------------|
B|----17----17----17----17----17----17----17----17-[---17---17---17----17-]--|
G|-17----17----17----17----16----16----16----16----[14----14---14---14----]--|
D|---------------------------------------------------------------------------| x2
A|---------------------------------------------------------------------------|
E|---------------------------------------------------------------------------|


Verse
0:40 - 1:33
e|---------------------------------------------------------------------------|
B|---------------------------------------------------------------------------|
G|---------------------------------------------------------------------------|
D|-7~-------5~--------3~-----------------------------------------------------| x3
A|-7~-------5~--------3~-----------------------------------------------------|
E|-5~-------3~--------1~-----------------------------------------------------|

e|---------------------------------------------------------------------------|
B|---------------------------------------------------------------------------|
G|----------------------------------7-9-12-----------------------------------|
D|-7--------5---------3--5--7--9-10-7-9-12-----------------------------------|
A|-7--------5---------3--5--7--9-10-5-7-10-----------------------------------|
E|-5--------3---------1--3--5--7-8-------------------------------------------|


Chorus
1:34 - 1:47
e|---------------------------------------------------------------------------|
B|---------------------------------------------------------------------------|
G|-14--------12-----------------------7-9-12---------------------------------|
D|-14--------12---------3--5--7--9-10-7-9-12---------------------------------|
A|-12--------10---------3--5--7--9-10-5-7-10---------------------------------|
E|----------------------1--3--5--7-8-----------------------------------------|

1:48 - 1:49
e|---------------------------------------------------------------------------|
B|---------------------------------------------------------------------------|
G|-2-------------------------------------------------------------------------|
D|-2-------------------------------------------------------------------------|
A|-0-------------------------------------------------------------------------|
E|---------------------------------------------------------------------------|
1:48 - 2:14
e|---------------------------------------------------------------------------|
B|---------------------------------------------------------------------------|
G|--7-5------7-2-------------------------------------------------------------|
D|--7-5------7-2-------------------------------------------------------------| x5
A|--5-3------5-0-------------------------------------------------------------|
E|---------------------------------------------------------------------------|

2:15 - 2:49
e|---------------------------------------------------------------------------|
B|---------------------------------------------------------------------------|
G|---------------------------------------------------------------------------|
D|-7~-------5~--------3~-----------------------------------------------------| x3
A|-7~-------5~--------3~-----------------------------------------------------|
E|-5~-------3~--------1~-----------------------------------------------------|

e|---------------------------------------------------------------------------|
B|---------------------------------------------------------------------------|
G|----------------------------------7-9-12-----------------------------------|
D|-7--------5---------3--5--7--9-10-7-9-12-----------------------------------|
A|-7--------5---------3--5--7--9-10-5-7-10-----------------------------------|
E|-5--------3---------1--3--5--7-8-------------------------------------------|


2:50 - 2:51
e|---------------------------------------------------------------------------|
B|---------------------------------------------------------------------------|
G|-2-------------------------------------------------------------------------|
D|-2-------------------------------------------------------------------------|
A|-0-------------------------------------------------------------------------|
E|---------------------------------------------------------------------------|
2:52 - 3:10
e|---------------------------------------------------------------------------|
B|---------------------------------------------------------------------------|
G|--7-5------7-2-------------------------------------------------------------|
D|--7-5------7-2-------------------------------------------------------------| x4
A|--5-3------5-0-------------------------------------------------------------|
E|---------------------------------------------------------------------------|

3:11 - 3:15
e|---------------------------------------------------------------------------|
B|---------------------------------------------------------------------------|
G|------------------------7-9-12-2-------------------------------------------|
D|----------3--5--7--9-10-7-9-12-2-------------------------------------------|
A|----------3--5--7--9-10-5-7-10-0-------------------------------------------|
E|----------1--3--5--7-8-----------------------------------------------------|

3:15 --> (Keyboard)
3:22 --> (bass)

3:28
e|---------------------------------------------------------------------------|
B|---------------------------------------------------------------------------|
G|-2~------------------------------------------------------------------------|
D|-2~------------------------------------------------------------------------|
A|-0~------------------------------------------------------------------------|
E|---------------------------------------------------------------------------|

3:29 - 4:06 Let ring after 2nd time
e|---------------------------------------------------------------------------|
B|---------------------------------------------------------------------------|
G|--7-5-----/7-2-------------------------------------------------------------|
D|--7-5-----/7-2-------------------------------------------------------------| x many
A|--5-3-----/5-0-------------------------------------------------------------|
E|---------------------------------------------------------------------------|

4:06 - 4:33
e|---------------------------------------------------------------------------|
B|---------------------------------------------------------------------------|
G|-7~------7~------------------------7-5----7-2------------------------------|
D|-7~------7~-----7-7-7-7-5-5-7~-----7-5----7-2--x6--------------------------|
A|-3~------5~-----7-7-7-7-5-5-7~-----5-3----5-0------------------------------|
E|----------------5-5-5-5-3-3-5~---------------------------------------------|


4:34 --> End
e|---------------------------------------------------------------------------|
B|---------------------------------------------------------------------------|
G|------------------------7-9-12-14~-----------------------------------------|
D|----------3--5--7--9-10-7-9-12-14~--(let ring out)-------------------------|
A|----------3--5--7--9-10-5-7-10-12~-----------------------------------------|
E|----------1--3--5--7-8-----------------------------------------------------|

Tunning: Standard (E A D G B e)
----------------------
WOLFMOTHER - MINDS EYE
----------------------

Ok this is the new kick ass song that i figured out while watching rage last night...i
dont have the song to listen to as the album is not out so i dont know how long to play
each part or the order of the song..

Intro
|----12----12----12----12----12----12----12----12-|
|-11----11----11----11----12----12----12----12----|
|-------------------------------------------------|
|-------------------------------------------------|
|-------------------------------------------------|
|-------------------------------------------------|

|----12----12----12----12----12----12----12----12-|
|-10----10----10----10----10----10----10----10----|
|-------------------------------------------------|
|-------------------------------------------------|
|-------------------------------------------------|
|-------------------------------------------------|

Verse:
Amin Gmaj Fmaj
|-5-----------3----------1------------------------|
|-5-----------3----------1------------------------|
|-5-----------4----------2------------------------|
|-7-----------5----------3------------------------|
|-7-----------5----------3------------------------|
|-5-----------3----------1------------------------|

Other Verse Part:
|---------------------------|
|---------------------------|
|---------------------------|
|-3--5--7--9--10-12--12--17-|
|-3--5--7--9--10-12--12--17-|
|-1--3--5--7--8--10--12--15-|

Chorus:
Amaj Dmaj Cmaj Dmaj
|--------------------------|
|--------------------------|
|-6-------11---9--------11-|
|-7-------12---10-------12-|
|-7-------12---10-------12-|
|-5-------10---8--------10-|

Im pretty sure thats all the guitar parts...

Keyboard solo: just major triad chords of the chorus...
E C# A E C# A E C# A E C# A
A F# D A F# D
G E C G E C G E C G E C
A F# D A F# D

ie:
|----------------------------------------------------|
|-5--5--5--5----10--10----8---8---8---8-----10--10---|
|--6--6--6--6----11--11----9---9---9---9-----11--11--|
|---7--7--7--7----12--12----10--10--10--10----12--12-|
|----------------------------------------------------|
|----------------------------------------------------|
Tunning: Nashville (E A D G B E)
ARTIST - Wolfmother
ALBUM - Self Titled
SONG - Mind's Eye

standard tuning. A Big Muff or a Fuzz Face works well for most wolfmother songs but an
overdrivey pedal is good here for the clean sounding verse stuff

There some keys at the start like fading in but the first guitar bit goes like this

INTRO - Clean
E|---12---12---12---12-|---12---12---12---12-|
B|-13---13---13---13---|-12---12---12---12---|
G|---------------------|---------------------|
D|---------------------|---------------------|
A|---------------------|---------------------|
E|---------------------|---------------------|

E|---12---12---12---12-|---12---12---12---12-|
B|-10---10---10---10---|-10---10---10---10---|
G|---------------------|---------------------|
D|---------------------|---------------------|
A|---------------------|---------------------|
E|---------------------|---------------------|

Play that twice, then the verse chords

VERSE - clean, slight OD
Am G
E|--5------------------|--3------------------|
B|--5------------------|--3------------------|
G|--5------------------|--4------------------|
D|--7------------------|--5------------------|
A|--7------------------|--5------------------|
E|--5------------------|--3------------------|

F F
E|--1------------------|--(1)----------------|
B|--1------------------|--(1)----------------|
G|--2------------------|--(2)----------------|
D|--3------------------|--(3)----------------|
A|--3------------------|--(3)----------------|
E|--1------------------|--(1)----------------|

play those chords once and then 3 times with vocals. on the last time,
instead of playing the last 2 F chords play this

PRE CHORUS
E|------------------|------------------|-------------------|-----------------|
B|------------------|------------------|-------------------|-----------------|
G|------------------|--------------12--|--14~~-------------|-----------------|
D|--3----5----7---9-|--10--12--14--12--|--14~~-------------|--5~~------------|
A|--3----5----7---9-|--10--12--14--10--|--12~~-------------|--5~~------------|
E|--1----3----5---7-|--8---10--12------|-------------------|--3~~------------|

E|------------------|------------------|-------------------|-----------------|
B|------------------|------------------|-------------------|-----------------|
G|------------------|--------------12--|--14~~-----------7-|--5~~----------7-|
D|--3----5----7---9-|--10--12--14--12--|--14~~-----------7-|--5~~----------7-|
A|--3----5----7---9-|--10--12--14--10--|--12~~-----------5-|--3~~----------5-|
E|--1----3----5---7-|--8---10--12------|-------------------|-----------------|

CHORUS - W/Fuzz
E|------------------|------------------|-------------------|-----------------|
B|------------------|------------------|-------------------|-----------------|
G|----------------7-|--5~~-----------7-|-----------------7-|--5~~----------7-|
D|--7~~-----------7-|--5~~-----------7-|--7~~------------7-|--5~~----------7-|
A|--7~~-----------5-|--3~~-----------5-|--7~~------------5-|--3~~----------5-|
E|--5~~-------------|------------------|--5~~--------------|-----------------|
Come and see the minds eye.... if we try

E|------------------|-----------3------|--5----------------|--3--------------|
B|------------------|-----------3------|--5----------------|--3--------------|
G|----------------7-|--5~~------4------|--5----------------|--4--------------|
D|--7~~-----------7-|--5~~------5------|--7----------------|--5--------------|
A|--7~~-----------5-|--3~~------5------|--7----------------|--5--------------|
E|--5~~-------------|-----------3------|--5----------------|--3--------------|
We can find it if we try
(goes quiet again)

E|--1---------------|-(1)--------------|
B|--1---------------|-(1)--------------|
G|--2---------------|-(2)--------------|
D|--3---------------|-(3)--------------|
A|--3---------------|-(3)--------------|
E|--1---------------|-(1)--------------|


VERSE - clean, slight OD
Am G
E|--5------------------|--3------------------|
B|--5------------------|--3------------------|
G|--5------------------|--4------------------|
D|--7------------------|--5------------------|
A|--7------------------|--5------------------|
E|--5------------------|--3------------------|
well they say its right if it feels alright

F F
E|--1------------------|--(1)----------------|
B|--1------------------|--(1)----------------|
G|--2------------------|--(2)----------------|
D|--3------------------|--(3)----------------|
A|--3------------------|--(3)----------------|
E|--1------------------|--(1)----------------|

Once again on the second time instead of playin the F chords play this

E|------------------|------------------|-------------------|-----------------|
B|------------------|------------------|-------------------|-----------------|
G|------------------|--------------12--|--14~~-----------7-|--5~~----------7-|
D|--3----5----7---9-|--10--12--14--12--|--14~~-----------7-|--5~~----------7-|
A|--3----5----7---9-|--10--12--14--10--|--12~~-----------5-|--3~~----------5-|
E|--1----3----5---7-|--8---10--12------|-------------------|-----------------|
come and see the minds eye

E|------------------|------------------|-------------------|-----------------|
B|------------------|------------------|-------------------|-----------------|
G|----------------7-|--5~~-----------7-|-----------------7-|--5~~----------7-|
D|--7~~-----------7-|--5~~-----------7-|--7~~------------7-|--5~~----------7-|
A|--7~~-----------5-|--3~~-----------5-|--7~~------------5-|--3~~----------5-|
E|--5~~-------------|------------------|--5~~--------------|-----------------|

E|------------------|------------------|
B|------------------|------------------|
G|------------------|--------------12--|
D|--3----5----7---9-|--10--12--14--12--|
A|--3----5----7---9-|--10--12--14--10--|
E|--1----3----5---7-|--8---10--12------|

OK now heres where the organ bit is, its playable on guitar but its hard to stop
the notes ringing out, i fingerpicked it and it worked out fine

E|-12----12----12----12----|12----12-----17----17-----|
B|---14----14----14----14--|--14----14-----19----19---|
G|-----14----14----14----14|----14----14-----19----19-|
D|-------------------------|--------------------------|
A|-------------------------|--------------------------|
E|-------------------------|--------------------------|
x2
E|-15----15----15----15----|15----15-----17----17-----|
B|---17----17----17----17--|--17----17-----19----19---|
G|-----17----17----17----17|----17----17-----19----19-|
D|-------------------------|--------------------------|
A|-------------------------|--------------------------|
E|-------------------------|--------------------------|

that is repeated heaps and on the 3rd and 4th times theres some guitar that goes like this..
(the chords are cut short aswell) the guitar part is under te prgan bit s you can see where
it all falls into place

E|-12----12----12----12----|12----12-----17----17-----|
B|---14----14----14----14--|--14----14-----19----19---|
G|-----14----14----14----14|----14----14-----19----19-|
D|-------------------------|--------------------------|
A|-------------------------|--------------------------|
E|-------------------------|--------------------------|

E|-------------------------|--------------------------|
B|-------------------------|--------------------------|
G|-------------------------|-------------7------------|
D|-7-----------------------|-------------7------------|
A|-7-----------------------|-------------5------------|
E|-5-----------------------|--------------------------|


E|-15----15----15----15----|15----15-----17----17-----|
B|---17----17----17----17--|--17----17-----19----19---|
G|-----17----17----17----17|----17----17-----19----19-|
D|-------------------------|--------------------------|
A|-------------------------|--------------------------|
E|-------------------------|--------------------------|

E|-------------------------|--------------------------|
B|-------------------------|--------------------------|
G|-5-----------------------|-------------7------------|
D|-5-----------------------|-------------7------------|
A|-3-----------------------|-------------5------------|
E|-------------------------|--------------------------|

do that twice and then repeat it twice again but let the chords ring out
instead of cutting them short

do a chorus like this letting the chords ring out. there also the faint organ
behind this aswell i think

E|------------------|------------------|-------------------|-----------------|
B|------------------|------------------|-------------------|-----------------|
G|----------------7-|--5~~-----------7-|-----------------7-|--5~~----------7-|
D|--7~~-----------7-|--5~~-----------7-|--7~~------------7-|--5~~----------7-|
A|--7~~-----------5-|--3~~-----------5-|--7~~------------5-|--3~~----------5-|
E|--5~~-------------|------------------|--5~~--------------|-----------------|

E|------------------|------------------|-------------------|
B|------------------|------------------|-------------------|
G|------------------|------------------|--5--5--5----------|
D|--3---------------|--5---------------|--5--5--5----5--5--|
A|--3---------------|--5---------------|--3--3--3----5--5--|
E|--1---------------|--3---------------|-------------3--3--|
The minds eye!

E|------------------|------------------|-------------------|-----------------|
B|------------------|------------------|-------------------|-----------------|
G|----------------7-|--5~~-----------7-|-----------------7-|--5~~----------7-|
D|--7~~-----------7-|--5~~-----------7-|--7~~------------7-|--5~~----------7-|
A|--7~~-----------5-|--3~~-----------5-|--7~~------------5-|--3~~----------5-|
E|--5~~-------------|------------------|--5~~--------------|-----------------|
come and see the minds eye

E|------------------|------------------|-------------------|
B|------------------|------------------|-------------------|
G|------------------|--------------12--|--14~~-------------|
D|--3----5----7---9-|--10--12--14--12--|--14~~-------------|
A|--3----5----7---9-|--10--12--14--10--|--12~~-------------|
E|--1----3----5---7-|--8---10--12------|-------------------|

let that last chord ring out for ages and thats it, please comment/rate.
it can get a bit confusing cos the chorus part always change but listen to the
song and it should be easy.
Tunning: Standard (E A D G B e)
Wolfmother - Mind's Eye

Intro
0:12 - 0:40

[play twice first time]
e|----12----12----12----12----12----12----12----12-[---12---12---12---12]----|
B|-12----12----12----12----11----11----11----11----[-9----9----9----9---]----|
G|---------------------------------------------------------------------------|
D|---------------------------------------------------------------------------| x2
A|---------------------------------------------------------------------------|
E|---------------------------------------------------------------------------|


Verse
0:40 - 1:33
e|---------------------------------------------------------------------------|
B|---------------------------------------------------------------------------|
G|-6~-------4~--------2~-----------------------------------------------------|
D|-7~-------5~--------3~-----------------------------------------------------| x3
A|-7~-------5~--------3~-----------------------------------------------------|
E|-5~-------3~--------1~-----------------------------------------------------|

e|---------------------------------------------------------------------------|
B|---------------------------------------------------------------------------|
G|-6--------4-----------------------7-9-12-----------------------------------|
D|-7--------5---------3--5--7--9-10-7-9-12-----------------------------------|
A|-7--------5---------3--5--7--9-10-5-7-10-----------------------------------|
E|-5--------3---------1--3--5--7-8-------------------------------------------|


Chorus
1:34 - 1:47
e|---------------------------------------------------------------------------|
B|---------------------------------------------------------------------------|
G|-14--------12-----------------------7-9-12---------------------------------|
D|-14--------12---------3--5--7--9-10-7-9-12---------------------------------|
A|-12--------10---------3--5--7--9-10-5-7-10---------------------------------|
E|----------------------1--3--5--7-8-----------------------------------------|

1:48 - 1:49
e|---------------------------------------------------------------------------|
B|---------------------------------------------------------------------------|
G|---------------------------------------------------------------------------|
D|--7~-----------------------------------------------------------------------|
A|--7~-----------------------------------------------------------------------|
E|--5~-----------------------------------------------------------------------|
1:48 - 2:14
e|---------------------------------------------------------------------------|
B|---------------------------------------------------------------------------|
G|---------------------------------------------------------------------------|
D|--12-10----12-7------------------------------------------------------------| x5
A|--12-10----12-7------------------------------------------------------------|
E|--10-8-----10-5------------------------------------------------------------|

2:15 - 2:49
e|---------------------------------------------------------------------------|
B|---------------------------------------------------------------------------|
G|-6~-------4~--------2~-----------------------------------------------------|
D|-7~-------5~--------3~-----------------------------------------------------| x3
A|-7~-------5~--------3~-----------------------------------------------------|
E|-5~-------3~--------1~-----------------------------------------------------|

e|---------------------------------------------------------------------------|
B|---------------------------------------------------------------------------|
G|-6~-------4~----------------------7-9-12-----------------------------------|
D|-7~-------5~--------3--5--7--9-10-7-9-12-----------------------------------|
A|-7~-------5~--------3--5--7--9-10-5-7-10-----------------------------------|
E|-5~-------3~--------1--3--5--7-8-------------------------------------------|


2:50 - 2:51
e|---------------------------------------------------------------------------|
B|---------------------------------------------------------------------------|
G|---------------------------------------------------------------------------|
D|--7------------------------------------------------------------------------|
A|--7------------------------------------------------------------------------|
E|--5------------------------------------------------------------------------|
2:52 - 3:10
e|---------------------------------------------------------------------------|
B|---------------------------------------------------------------------------|
G|---------------------------------------------------------------------------|
D|--12-10----12-7------------------------------------------------------------| x4
A|--12-10----12-7------------------------------------------------------------|
E|--10-8-----10-5------------------------------------------------------------
|
3:11 - 3:15
e|---------------------------------------------------------------------------|
B|---------------------------------------------------------------------------|
G|------------------------7-9-12-2-------------------------------------------|
D|----------3--5--7--9-10-7-9-12-2-------------------------------------------|
A|----------3--5--7--9-10-5-7-10-0-------------------------------------------|
E|----------1--3--5--7-8-----------------------------------------------------|

3:15 --> (Keyboard)
3:22 --> (bass)

3:28
e|---------------------------------------------------------------------------|
B|---------------------------------------------------------------------------|
G|---------------------------------------------------------------------------|
D|--7~-----------------------------------------------------------------------|
A|--7~-----------------------------------------------------------------------|
E|--5~-----------------------------------------------------------------------|

3:29 - 4:06 Let ring after 2nd time
e|---------------------------------------------------------------------------|
B|---------------------------------------------------------------------------|
G|---------------------------------------------------------------------------|
D|--12-10----12-7------------------------------------------------------------| x many
A|--12-10----12-7------------------------------------------------------------|
E|--10-8-----10-5------------------------------------------------------------|

4:06 - 4:33
e|---------------------------------------------------------------------------|
B|---------------------------------------------------------------------------|
G|---------------------------------------------------------------------------|
D|---10~-12~------7-7-7-7-5-5-7~-----12-10----12-7--x6-----------------------|
A|---10~-12~------7-7-7-7-5-5-7~-----12-10----12-7---------------------------|
E|---8~--10~------5-5-5-5-3-3-5~-----10-8-----10-5---------------------------|


4:34 --> End
e|---------------------------------------------------------------------------|
B|---------------------------------------------------------------------------|
G|------------------------7-9-12-14~-----------------------------------------|
D|----------3--5--7--9-10-7-9-12-14~--(let ring out)-------------------------|
A|----------3--5--7--9-10-5-7-10-12~-----------------------------------------|
E|----------1--3--5--7-8-----------------------------------------------------|
Song info
Minds Eye
Wolfmother
2001
  • Rock
  • Alternative Rock
  • Classic Rock
  • Hard Rock
Similar songs
You Love The Thunder - Jackson Browne
Demons - Imagine Dragons
Pure Massacre - Silverchair

Hi! Hope you enjoy backing track experience.
If you want to help us in the development of the project, feel free to donate!