Lost Due To Incompetence - Yesca
00:00 / 00:00
Tabs and lyrics
Tunning: Standard (E A D G B e)
e---------------------------------------------------|
b---------------------------------------------------|
g---------------------------------------------------|
d---------------------------------------------------|
a---------------------------------------------3-----|
e-5-4-5-4-5-4-3-2-1-1--1-1--1-1--1-1-3-5-5--5---5-3-| repeat throughout song

other guitar riff

e---------------------------|
b-3--1----3--1---3-1---3--5-|
g----2-------2-----2------5-|
d----3-------3-----3------7-|
a---------------------------|
e---------------------------| repeats over other riff throughout


guitar solo:

e------------------------------------------------------------------------------|
b-15^17-15^16^17---20-17-------------------------------------------------------|
g------------------------19-17—19^21-17-19-19^21-19-17--------17-19-17---------|
d----------------------------------------------------------19-----------19-----|
a------------------------------------------------------------------------------|
e------------------------------------------------------------------------------|

e----------------------------------------------------------------------------|
b----------17-------------20-17-20-21^22\20-17----17-------17-------20-17-20-|
g----17h19-------17h19-21----------------------19----17h19----17h19----------|
d-19----------19-------------------------------------------------------------|
a----------------------------------------------------------------------------|
e----------------------------------------------------------------------------|

e-----------------------------------------------------------------------------|
b--20^22-20^22-20^22\20-17-22^24\22-22^24-22^24\22-20-22-20-17----17----------|
g--------------------------------------------------------------19----19-17^19-|
d-----------------------------------------------------------------------------|
a-----------------------------------------------------------------------------|
e-----------------------------------------------------------------------------|

e------------------------------------------------|
b------------------------------------------------|
g--19-17----17-19^21-19-21^22-21-19-17-19-17-----|
d--------19----------------------------------19--|
a------------------------------------------------|
e------------------------------------------------|

e-----------------------------------------------------------------------------|
b-----------------------------------------------------------------------------|
g--19-17----17-19^21\17-------------------------------------------------------|
d--------19--------------19-17----17-19^21\17-------------------17-19-17------|
a------------------------------19-------------19-17/22-19-17-19----------19---|
e-----------------------------------------------------------------------------|

e-------------------------------------------------------------------------|
b-------------------------------------------17-20-17----17—20---22^24-----|
g--------------------17---17-19-21-19-17-19----------19-------------------|
d--17-19-22-19-17-19---19-------------------------------------------------|
a-------------------------------------------------------------------------|
e-------------------------------------------------------------------------|


attention all units...

e-------------------------------------------------------------------------------|
b--15^17-15b16^17---20-17-------------------------------------------------------|
g-------------------------19-17—19^21-17-19-19^21-19\17-------17-19-17----------|
d-----------------------------------------------------------19-----------19-----|
a-------------------------------------------------------------------------------|
e-------------------------------------------------------------------------------|

e----------------------------------------------------------------------------|
b----------17-------------20-17-20-21^22\20-17----17-------17-------20-17-20-|
g----17h19-------17h19-21----------------------19----17h19----17h19----------|
d-19----------19-------------------------------------------------------------|
a----------------------------------------------------------------------------|
e----------------------------------------------------------------------------|

e-----------------------------------------------------------------------------|
b--20^22-20^22-20^22\20-17-22^24\22-22^24-22^24\22-20-22-20-17----17----------|
g--------------------------------------------------------------19----19-17^19-|
d-----------------------------------------------------------------------------|
a-----------------------------------------------------------------------------|
e-----------------------------------------------------------------------------|

e------------------------------------------------|
b------------------------------------------------|
g--19-17----17-19^21-19-21^22-21-19-17-19-17-----|
d--------19----------------------------------19--|
a------------------------------------------------|
e------------------------------------------------|

e-----------------------------------------------------------------------------|
b-----------------------------------------------------------------------------|
g--19-17----17-19^21\17-------------------------------------------------------|
d--------19--------------19-17----17-19^21\17-------------------17-19-17------|
a------------------------------19-------------19-17/22-19-17-19----------19---|
e-----------------------------------------------------------------------------|

e-----------------------------------------------------------------------|
b-------------------------------------------17-20-17----17—20----22^24--|
g--------------------17---17-19-21-19-17-19----------19-----------------|
d--17-19-22-19-17-19---19-----------------------------------------------|
a-----------------------------------------------------------------------|
e-----------------------------------------------------------------------|
Song info
Lost Due To Incompetence
Yesca
2001
  • Funk / Soul
  • Rock
  • Funk
Similar songs
Dancing Machine - The Jackson 5
Treasure - Bruno Mars
Old Town - Phil Lynott
Love Rollercoaster - Ohio Players
Play That Funky Music - Wild Cherry

Hi! Hope you enjoy backing track experience.
If you want to help us in the development of the project, feel free to donate!