La Grange - ZZ Top
00:00 / 00:00
Tabs and lyrics
Tunning: Standard (E A D G B e)
LaGrange
ZZ Top


(clean sound)
x2
e|----------------------||--------------------------------||
B|----------------------||--------------------------------||
G|-------2--2--2--2--2--||--2----2----2-4--2--2--2--2--2--||
D|----2--2--2--2--2--2--||--2-2--2-4--2-2--2--2--2--2--2--||
A|----0-----------------||----0----0----------------------||
E|----------------------||--------------------------------||
v ^ ^ ^ ^ ^ ^ v ^ v ^ v ^ ^ ^ ^ ^

During the first verse, keep repeating the section above between |: and :|
occasionally playing it this way to emphasize the words:

e|-----------------------------------|
B|-----------------------------------|
G|---2----2----2----2--2--2--2--2----|
D|---2----2----2-2--2--2--2--2--2----|
A|-----3----5----0-------------------|
E|-----------------------------------|
^ v ^ v ^ v ^ ^ ^ ^ ^

Then after 'They got a lot o' nice girls' comes the break. Resume playing
the same as above with heavy distortion:

x2
e|----------------------||--------------------------------||
B|----------------------||--------------------------------||
G|-------2--2--2--2--2--||--2----2----2----2--2--2--2--2--||
D|----2--2--2--2--2--2--||--2----2----2-2--2--2--2--2--2--||
A|----0-----------------||----3----5----0-----------------||
E|----------------------||--------------------------------||
v ^ ^ ^ ^ ^ ^ v ^ v ^ v ^ ^ ^ ^ ^

Keep repeating the part in between || || during the second verse, then
after 'I might be mistaken', switch to:

x2
e|----------------------------||-------------------------------------------||
B|----------------------------||-------------------------------------------||
G|----------------------------||------8--8-10--10--------------------------||
D|----10-10--10--10--10--10---||---10-8--8-10--10-10--10--10--10--10--10---||
A|----10-10--10--10--10--10---||---10-------------10--10--10--10--10--10---||
E|----------------------------||-------------------------------------------||
v ^ ^ ^ ^ ^ ^ v ^ v ^ v ^ ^ ^ ^ ^

Then, during the guitar solo, keep playing the above section between |: :|
When the solo comes to an end, this is the pattern and the break:

e|------------------------------------------|
B|------------------------------------------|
G|---------------------------------8--8-10--|
D|----10-10--10--10--10--10-----10-8--8-10--|
A|----10-10--10--10--10--10-----10----------|
E|------------------------------------------|
v ^ ^ ^ ^ ^ ^ v ^ v

x2
e||-------5---5---5-----5---5---5-----5---5---5----------------||
B||------------------------------------------------------------||
G||---------------------------------------------------------2--||
D||---4/5---5---5---3/4---4---4---2/3---3---3---------------2--||
A||-----------------------------------------------0--0--3h4----||
E||------------------------------------------------------------||
(I usually play the D string with my pick and the E string with
my middle finger. You can, of course, play both with your pick)


Repeat the break between |: and :| twice, then go back to the
clean part (same as the very first section). Play it 4 times,
hit the distortion, and play the same as the first verse until the fade...




*********************************************************

| ^ picking upward
| v picking downward

*********************************************************
Tunning: Standard (E A D G B e)
Tuning: E,A,D,G,B,e


e|-----------------------------|
B|-------------------------1---| Repeat Again
G|-2-2--2--2--2--2-----0h2---2-| 2x
D|-2-2--2--2--2--2-------------|
A|-----------------(2)---------|
E|-----------------------------|

e|-----------------------------------------|
B|-----------------------------------------|
G|-2-2--2--2--2--2-----2-2--2--2--2--2-----|
D|-2-2--2--2--2--2-----2-2--2--2--2--2-----|
A|-----------------3h5-----------------3h5-|
E|-----------------------------------------|

e|-------------------------------------------|
B|-------------------------------------------|
G|-2-2--2--2--2--2-5-7---2-2--2--2--2--2-5-7-|
D|-2-2--2--2--2--2-5-7---2-2--2--2--2--2-5-7-|
A|-0-0--0--0--0--0-3-5---0-0--0--0--0--0-3-5-|
E|-------------------------------------------|

e|--------8------------------------|-----------------------------|
B|-11b------11-8-11-8--------------|-----------------------------|
G|--------------------10p8-10-8----|-----------------------------|
D|------------------------------8~-|-8-10------------------------|
A|---------------------------------|------10p8-10p8/6h8-8p6------|
E|---------------------------------|------------------------8-6~-|

e|-----------------------------------------------------------|
B|--------------------------------------11-11-11-11-11-11-11-|
G|--------------------------------8h10--12-12-12-12-12-12-12-|
D|---------------------------8-10----------------------------|
A|-----6h8/10-----------8-10---------------------------------|
E|-6h8--------11p8-8-11--------------------------------------|

e|-------------------------------------------|
B|-------------------------------------------|
G|-10p8-------------------------8h10p8-------|
D|------10p8---------------8h10--------10~/--|
A|-----------10p8-----8h10-------------------|
E|----------------11~------------------------|

e|-----------------------------------------------------------------|
B|----10----10-----10------10-----10-----10-----10------10------10-|
G|-12----12----12------11-----11-----11-----10------10------10-----|
D|-----------------------------------------------------------------|
A|-----------------------------------------------------------------|
E|-----------------------------------------------------------------|

e|------------|
B|------------|
G|---------2--|
D|------------|
A|-0-0-3h4----|
E|------------|

Then play the intro again
Then to the next solo

I don't know the next solo but there are a lot of pinch harmonics




************************************

| h Hammer-on
| (n) Ghost note
| b Bend
| p Pull-off
| ~ Vibrato
| / Slide up
| ph pinch harmonic

************************************
Tunning: Standard (E A D G B e)
[Verse]

guitar 1 (clean)
|------------------------------------|
|------------------------------------|
|-2-2--2--2--2--2---------5-----5b---|
|-2-2--2--2--2--2----5----2-----2----|
|------------------0---0-----0-------|
|------------------------------------|

after a while guitar 2 plays this:
|--------------------------|
|--------------------------|
|-2-2--2--2--2--2----------|
|-2-2--2--2--2--2----------|
|-0-0--0--0--0--0----3--5--|
|--------------------------|

during Solo Guitar 1 plays: or this also sounds ok, but is incorrect:
|---------------------------------| |---------------------------------------|
|---------------------------------| |---------------------------------------|
|---------------------------------| |--------------------------------8--10--|
|-10--10--10--10-----8-----10-----| |----10-10--10--10--10--10---10--8--10--|
|-10--10--10--10-----6-----8------| |----10-10--10--10--10--10---10---------|
|-----------------8-----8------8--| |---------------------------------------|


[Solo]

|----------8----------------------------------|
|-11b~-------11-8-11p8----8-------------------|
|----------------------10----8-------10-8-----|
|--------------------------------10-------10--|
|---------------------------------------------|
|---------------------------------------------|

|---------------------------------|---------------------------|
|---------------------------------|---------------------------|
|--10-----------------------------|---------------------------|
|-----10~---------8---------------|--10~----------8-----------|
|------------8h10---10\8--6--8--6-|---------8h10-----10\8--6--|
|---------------------------------|---------------------------|

|----------------------------------------------|------------------------|
|----------------------------------------------|------------------------|
|---------8*---x-------------------------------|------------------------|
|-10--10---------x--------8--------------------|-------8----------------|
|-------------------8h10----10\8--6--8--6------|-8/10----10\8--6--8--6--|
|-----------------------------------------8--8-|------------------------|

|-------------------------|-----------------------------------|----------------------|
|-------------------------|-11----11----11-----11\------------|----------------------|
|------------------10/11--|----12----12----12------10--8B-----|----------------------|
|--/10--10~-----10--------|--------------------------------10-|-------8--------------|
|-------------------------|-----------------------------------|--8h10----8--6--8--6--|
|-------------------------|-----------------------------------|----------------------|

|----------------------------|-------------------------|---------------------------------------|
|----------------------------|-------------------------|---------------------------------------|
|----------------------------|----------------10--8b---|-------------------8*----8*~-----------|
|----------------------------|-------8-----10----------|-10~---10--8--10-----------------8-----|
|-----------6-----6--8p6--8--|-8/10-----10-------------|-----------------------------------10--|
|-8---8-6h8----8-------------|-------------------------|---------------------------------------|

|--------------------|---------------------------|--------------------------------|
|--------------------|------11--11--11--------11-|--11--10/11--11-----------------|
|-8*----8--8---------|-8/12------------10\12-----|--12--11/12-----12\10--8--10-*--|
|-------------10~----|---------------------------|--------------------------------|
|--------------------|---------------------------|--------------------------------|
|--------------------|---------------------------|--------------------------------|

|-----8-----------------------------|-------------------------------|-----------------------|
|--8-----11p8-----8-----------------|-------------------------------|-----------------------|
|--------------10---8----10--10---8-|-------------------------------|-----------------------|
|---------------------10------------|------8------------------------|-------8--8--8------8--|
|-----------------------------------|-8h10----10-10--9-\6-----------|---/10----------10-----|
|-----------------------------------|----------------------8--8--6--|-8---------------------|

|---------------------------|------------------------------------|----------------------------|
|------------------------11-|-------11----11----11----11----11\--|-----11----11---------------|
|------------8----10/12-----|*--/12----12----12----12----12-----*|-/12----12----\10--8--------|
|-10-10--10----10-----------|*----------------------------------*|---------------------10--8--|
|---------------------------|-------------(4 times)--------------|----------------------------|
|---------------------------|------------------------------------|----------------------------|

|--------------------------|-------------------------------|---------------------------------|
|--------------11----11----|-11----11----11-----11----11\--|-----11----11----11----11----11\-|
|----------/12----12----12-|----12----12----/12----12------|-/12----12----12----12----12-----|
|-10~----------------------|-------------------------------|---------------------------------|
|--------------------------|-------------------------------|---------------------------------|
|--------------------------|-------------------------------|---------------------------------|

|--------------------------------|-------------------------------|-----------------|
|-----11-----11-----11--11-------|-11--------11------------------|--------8--10----|
|-/12----/12----/12---------/12--|----10/12-----/10--8-----------|---8h9-----------|
|--------------------------------|------------------------10~----|-----------------|
|--------------------------------|-------------------------------|-----------------|
|--------------------------------|-------------------------------|-----------------|


[Interlude]
(guitars 1 & 2)
|-------5---5---5-|-----5---5---5-|-----5---5---5----------------------|
|-----------------|---------------|------------------------------------|
|.----------------|---------------|---------------------------2-------.|
|.--4/5---5---5---|-3/4---4---4---|-2/3---3---3---------------2-------.|
|-----------------|---------------|-----------------0--0--3h4-----0----|
|-----------------|---------------|------------------------------------|


[Outro solo]

|------------------|-------------------------|----------------------|
|------------------|-------------------------|----------8*----8*----|
|-----5------------|-7*-------5--------------|----------------------|
|--7-----7p5h7-----|-------------7~----------|----------------------|
|------------------|-------------------------|----------------------|
|------------------|-------------------------|----------------------|

|---------------|-------------------|---------------------------|
|-8*---8*-~~r5--|-8--8*-~---8*--r5--|-8-------------------------|
|---------------|-------------------|----7*----7--5*----7--5*---|
|---------------|-------------------|---------------------------|
|---------------|-------------------|---------------------------|
|---------------|-------------------|---------------------------|

|------------------|----------------------|-----------------------|
|------------------|--5--8----------------|-----------------------|
|----------5--7*---|---------7*----7--5*--|--5*----------5--7*----|
|--7~--------------|----------------------|-------7~--------------|
|------------------|----------------------|-----------------------|
|------------------|----------------------|-----------------------|

|---------------------------|-----------------------|--------------------------|
|---------------------------|-----------------------|--------------------------|
|--7*---7*---7*---7*---7*---|--7*----5--------------|-------5*----7---5--7*----|
|---------------------------|-----------------7--5--|-7--7---------------------|
|---------------------------|-----------------------|--------------------------|
|---------------------------|-----------------------|--------------------------|

|----------------------------|---------------------------------8B----|
|----------------------------|------8--10*--------8---10--10---------|
|--7*--r5--7---5*--r---------|--/9-----------------------------------|
|---------------------7~-----|---------------------------------------|
|----------------------------|---------------------------------------|
|----------------------------|---------------------------------------|

|----8---------------|---------------------------|------------------------5-|
|--------10----------|--8------------------------|------------------8--7----|
|---------------7/9--|-----\7---5--7*-----7---5--|---------------5----------|
|--------------------|---------------------------|--7~------5h7-------------|
|--------------------|---------------------------|--------------------------|
|--------------------|---------------------------|--------------------------|

|------------------------|-----------------------|------------------------|
|---7---5b---------------|-----------------------|------------------------|
|-----------7*-----5*----|-----------------------|------------------------|
|------------------------|--7-----5b-------------|------------------------|
|------------------------|-----7------7\5----3b--|--5-----3b---5-----3b---|
|------------------------|-----------------------|-----5----------5-------|

|--------------------------|-----------------------|----------------------|
|--------------------------|-----------------------|----------------------|
|-----5b-----7*--r--5b-----|--7--5b--7~----5--7*---|--7*---7*---7*---7*---|
|--7------7-------------7--|---------------5-------|----------------------|
|--------------------------|-----------------------|----------------------|
|--------------------------|-----------------------|----------------------|

|---------------------|---------------------|--x-----------------|
|---------------------|---------------------|--x-----------------|
|-7*---7*---7*---7*---|-7*---7*---7*---7*---|--x--7*---7*---7*---|
|---------------------|---------------------|--------------------|
|---------------------|---------------------|--------------------|
|---------------------|---------------------|--------------------|

|-------------------------|------------------------|-----5---------------------|
|-------------------------|---------------------5--|---------10~------10---10--|
|--7*---7*---7*---7*---5--|----------------5h6-----|---------------------------|
|-------------------------|--7---7~----------------|---------------------------|
|-------------------------|------------------------|---------------------------|
|-------------------------|------------------------|---------------------------|

|---8B------8---8--|--x--------------------------|------------------5----|
|------------------|-----10~-----8\5-------------|-------------5h6-------|
|------------------|------------------7--5h7--5--|-----------------------|
|------------------|-----------------------------|-7~--------------------|
|------------------|-----------------------------|-----------------------|
|------------------|-----------------------------|-----------------------|

|--5-----------------------|--8------------8-------------|
|--5--8~---------------8---|--8------------8-----7---5---|
|-----------------/9---9---|--9--------9---9-----7---5---|
|----------------------10--|-----------10----------------|
|--------------------------|-----------------------------|
|--------------------------|-----------------------------|


[Fade]

|------------------------------|-----7/8\7---8-----------|----------------|
|---5--5-----------------------|-----7/8\7---8-----------|----------------|
|---5--5-----------------------|-----8/9\8---9---/7--5---|--7*--r5--7*----|
|----------7--5----------------|-------------------------|----------------|
|----------------7--6--5-------|--0----------------------|----------------|
|-------------------------8--8-|-------------------------|----------------|

|------------------------|--------------------------------|-------------------------|
|------------------------|--------------------------------|-------------------------|
|---7*----7*---7*---7*---|--7*---7*---7*---7*------5------|-------------------------|
|------------------------|----------------------------7~--|----------5--------------|
|------------------------|--------------------------------|----5--7-----5-----5-----|
|------------------------|--------------------------------|----------------8-----8--|


****************************
| b 1/4 bend
| B 1/2 bend
| *- pinch harmonic
| r release
| 7FB-r5 7 full bend, release, pull-off to 5
| / slide up
| \ slide down
| h hammer-on
| x dead note
| : reprise
| ~ vibrato
****************************
Tunning: Standard (E A D G B e)
LA GRANGE
As recorded by ZZ Top

[Intro]
Q=160(8=s8)
4/4
Gtr I
H Q E E E E E E E E E E E E Q E E E E E E E E E E E E
e|-------------|-----------------|-------------------|---------------------|
B|-------------|-----------------|-------------------|---------------------|
G|-----------x-|-2-2---2---2---2-|---2-----------5---|--5b6-2---2---2---2--|
D|-----------x-|-2-2---2---2---2-|---2------5--------|--2---2---2---2---2--|
A|-------------|-----------------|-------0-(0)-0---0-|-(0)-----------------|
E|-------------|-----------------|-------------------|---------------------|
Q E E +E Q E +E E Q H

E E Q E E E E E E E E E E E E
e|-------------------|--------------------|
B|-------------------|--------------------|
G|---2-----------5---|--5b6-2---2---2---2-|
D|---2------5--------|--2---2---2---2---2-|
A|-------0-(0)-0---0-|-(0)----------------|
E|-------------------|--------------------|
Q E E +E Q E +E E Q H

[Verse]
E E Q E E E E E E E E E E E E
e|-------------------|--------------------|
B|-------------------|--------------------|
G|---2-----2---5b6-2-|--5b6-2---2---2---2-|
D|---2-----5---2-----|--2---2---2---2---2-|
A|-------0---0-----0-|-(0)----------------|
E|-------------------|--------------------|
Q E E E Q E +Q Q H

E E E E Q E E E E E E E E E E
e|----------------------|-------------------|
B|----------------------|-------------------|
G|---2---------------^2-|-(2)-2---2---2---2-|
D|---2---2-(2)-------^2-|-(2)-2---2---2---2-|
A|----------3b3.5--5----|--0----------------|
E|----------------------|-------------------|

E E E E Q E E E E E E E E E E
e|----------------|-------------------|
B|----------------|-------------------|
G|---2----------2-|-(2)-2---2---2---2-|
D|---2---2------2-|-(2)-2---2---2---2-|
A|---------3--5---|--0----------------|
E|----------------|-------------------|

E E E E Q E E E E E E E E E E E E E E Q E E
e|----------------|-------------------|----------------|
B|----------------|-------------------|----------------|
G|---2----------2-|-(2)-2---2---2---2-|---2----------2-|
D|---2---2------2-|-(2)-2---2---2---2-|---2---2------2-|
A|---------3--5---|--0----------------|---------3--5---|
E|----------------|-------------------|----------------|

E E E E E E E E E E E E Q E E E E E E E E E E E E E E Q E E
e|-------------------|----------------|-------------------|----------------|
B|-------------------|----------------|-------------------|----------------|
G|-(2)-2---2---2---2-|---2----------2-|-(2)-2---2---2---2-|---2----------2-|
D|-(2)-2---2---2---2-|---2---2------2-|-(2)-2---2---2---2-|---2---2------2-|
A|--0----------------|---------3--5---|--0----------------|---------3--5---|
E|-------------------|----------------|-------------------|----------------|

E E E E E E E E E E E E Q E E E E E E E E E E E E E E Q E E
e|-------------------|----------------|-------------------|----------------|
B|-------------------|----------------|-------------------|----------------|
G|-(2)-2---2---2---2-|---2----------2-|-(2)-2---2---2---2-|---2----------2-|
D|-(2)-2---2---2---2-|---2---2------2-|-(2)-2---2---2---2-|---2---2------2-|
A|--0----------------|---------3--5---|--0----------------|---------3--5---|
E|-------------------|----------------|-------------------|----------------|

E E E E E E E E W E E E E E E E E E E E E Q E E
e|-------------------|----------|-----------------|------------------|
B|-------------------|----------|-----------------|------------------|
G|-(2)-2---2---2---2-|----------|-2-2---2---2---2-|---2---2-(2)----2-|
D|-(2)-2---2---2---2-|----------|-2-2---2---2---2-|---2---2-(2)----2-|
A|--0----------------|----------|-0---------------|----------3---5---|
E|-------------------|----------|-----------------|------------------|

E E E E E E E E E E E E Q E E E E E E E E E E E E E E Q E E
e|-------------------|------------------|-------------------|------------------|
B|-------------------|------------------|-------------------|------------------|
G|-(2)-2---2---2---2-|---2---2-(2)----2-|-(2)-2---2---2---2-|---2---2-(2)----2-|
D|-(2)-2---2---2---2-|---2---2-(2)----2-|-(2)-2---2---2---2-|---2---2-(2)----2-|
A|--0----------------|----------3---5---|--0----------------|----------3---5---|
E|-------------------|------------------|-------------------|------------------|

E E E E E E E E E E E E Q E E
e|-------------------|------------------|
B|-------------------|------------------|
G|-(2)-2---2---2---2-|---2---2-(2)----2-|
D|-(2)-2---2---2---2-|---2---2-(2)----2-|
A|--0----------------|----------3---5---|
E|-------------------|------------------|

[Verse 2]
E E E E E E E E E E E E Q E E
e|-----------------|------------------|
B|-----------------|------------------|
G|-2-2---2---2---2-|---2---2-(2)----2-|
D|-2-2---2---2---2-|---2---2-(2)----2-|
A|-0---------------|----------3---5---|
E|-----------------|------------------|

E E E E E E E E E E E E Q E E E E E E E E E E E E E E Q E E
e|-------------------|------------------|-------------------|------------------|
B|-------------------|------------------|-------------------|------------------|
G|-(2)-2---2---2---2-|---2---2-(2)----2-|-(2)-2---2---2---2-|---2---2-(2)----2-|
D|-(2)-2---2---2---2-|---2---2-(2)----2-|-(2)-2---2---2---2-|---2---2-(2)----2-|
A|--0----------------|----------3---5---|--0----------------|----------3---5---|
E|-------------------|------------------|-------------------|------------------|

E E E E E E E E E E E E Q E E E E E E E E E E E E E E Q E E
e|-------------------|------------------|-------------------|------------------|
B|-------------------|------------------|-------------------|------------------|
G|-(2)-2---2---2---2-|---2---2-(2)----2-|-(2)-2---2---2---2-|---2---2-(2)----2-|
D|-(2)-2---2---2---2-|---2---2-(2)----2-|-(2)-2---2---2---2-|---2---2-(2)----2-|
A|--0----------------|----------3---5---|--0----------------|----------3---5---|
E|-------------------|------------------|-------------------|------------------|

E E E E E E E E E E E E Q E E E E E E E E E E E E E E Q E E
e|-------------------|------------------|-------------------|------------------|
B|-------------------|------------------|-------------------|------------------|
G|-(2)-2---2---2---2-|---2---2-(2)----2-|-(2)-2---2---2---2-|---2---2-(2)----2-|
D|-(2)-2---2---2---2-|---2---2-(2)----2-|-(2)-2---2---2---2-|---2---2-(2)----2-|
A|--0----------------|----------3---5---|--0----------------|----------3---5---|
E|-------------------|------------------|-------------------|------------------|

[Gtr I]
E E E E E E E E W
e|-----------------|----------|
B|-----------------|----------|
G|-2-2---2---2---2-|----------|
D|-2-2---2---2---2-|----------|
A|-0---------------|----------|
E|-----------------|----------|

[Guitar Solo]
W
~~~~~
e|-------------------------|
B|-11b13-------------------|
G|-------------------------|
D|-------------------------|
A|-------------------------|
E|-------------------------|

[Gtr II]
E E E E E E E E
e|-------------------------|
B|-------------------------|
G|-------------------------|
D|-------10---10---10---10-|
A|-10----10---10---10---10-|
E|--8----------------------|

|---3---| |---3---| |--3---| |--3---|
E E E E E E E E E E E E
e|-8---------------------------------------|
B|---11p===8-11p8-------8------------------|
G|-------------------10---8------10-8------|
D|----------------------------10--------10-|
A|-----------------------------------------|
E|-----------------------------------------|

E E E E E E E E
e|-----------------------------------------|
B|-----------------------------------------|
G|-----------------------------------------|
D|------10--------10----8---x----10---x----|
A|------10--------10----6---x-----8---x----|
E|-----------------------------------------|

~~~~ ~~~
|---3----| |---3---|
E E E +Q E E E E E Q. S S E E E E
e|------------------------------------|-----------------------------|
B|------------------------------------|-----------------------------|
G|-10---------------------------------|-----------------------------|
D|----10----10-(10)------------8------|-10---------------8--8-------|
A|---------------------8h10------8----|-----------8h10-(10)----8----|
E|---------------------------------11-|--------------------------11-|

E E E E E E E E E E E E E E E E
e|------------------------------------|-----------------------------|
B|------------------------------------|-----------------------------|
G|------------------------------------|-----------------------------|
D|-------10---------10------10-----10-|-----10---10------8--x-10--x-|
A|-10----10---------10------10-----10-|-----10---10------6--x--8--x-|
E|--8---------------------------------|-----------------------------|

~~~
E Q. E +E E a E E E a E E E E E E
e|-------------------------------|-------------------------|
B|-------------------------------|-------------------------|
G|-------------8b10==(8)r--------|-------------------------|
D|-10-10-------------------------|-----8-------------------|
A|-----------------------------8h|=10----10s8--6-8-6-------|
E|--------------------------x----|--------------------8-6--|

E E E E E E E E E E E E E E E E
e|-------------------------------|-------------------------|
B|-------------------------------|-------------------------|
G|-------------------------------|-------------------------|
D|----10----10-------10-------10-|----10------10-8-x-10-x--|
A|-10-10----10-------10-------10-|----10------10-6-x--8-x--|
E|--8----------------------------|-------------------------|

~~ ~~~~~~~~~~~~~
|---3---|
Q a E E E E E E a E a Q. +Q E E E
e|-------------------------|-----------------------------------|
B|-------------------------|--------------------------------11-|
G|-------------------------|------------------------10s12------|
D|-------------8-----------|-8s10-8h10-------(10)--------------|
A|-------8s10----8--6-8--6-|-----------------------------------|
E|--8----------------------|-----------------------------------|

E E E E E E E E E E E E E E E E
e|-------------------------|-----------------------------------|
B|-------------------------|-----------------------------------|
G|-------------------------|-----------------------------------|
D|----10------10---10---10-|--------10----10---8--x-10----x----|
A|-10-10------10---10---10-|--------10----10---6--x--8----x----|
E|--8----------------------|-----------------------------------|

~~
|----3----| |---3----| |-----3------| |---3---|
+E E E E E E Q a Q Q Q E E E E E E E
e|------------------------------------------------|----------------------------|
B|-(11)-------11----11-------11-------------------|----------------------------|
G|------12-------12-------12-------12s10---8b9----|----------------------------|
D|------------------------------------------------|-10------------8------------|
A|------------------------------------------------|-------8-10------8-----8----|
E|------------------------------------------------|-------------------11----11-|

E E E E E E E E E E E E E E E E
e|------------------------------------------------|----------------------------|
B|------------------------------------------------|----------------------------|
G|------------------------------------------------|----------------------------|
D|---------10----------10-------10-------------10-|----10------10---8--x-10--x-|
A|--10-----10----------10-------10-------------10-|----10------10---6--x--8--x-|
E|---8--------------------------------------------|----------------------------|

|--3---| |--3---| |--3---|
Q E E E E E E E E E a E E E S S Q q
e|----------------------------------|--------------------------------|
B|----------------------------------|--------------------------------|
G|----------------------------------|------------------------8b8.5---|
D|----------------------------------|-------8-10--8----10------------|
A|----------------6------6-8-6----8-|-8s10----------10---------------|
E|--8----8-6----8---8---------------|--------------------------------|

E E E E E E E E E E E E E E E E
e|----------------------------------|--------------------------------|
B|----------------------------------|--------------------------------|
G|----------------------------------|--------------------------------|
D|----10-----10-------10-------10---|------10----10-----8-x-10-----x-|
A|-10-10-----10-------10-------10---|------10----10-----6-x--8-----x-|
E|--8-------------------------------|--------------------------------|

~~ ~~ ~~
Q E E Q E +e Q a H E E
e|------------------------------|---------------------------|
B|------------------------------|-x\------------------------|
G|-------------------8b10==(8)r-|-x\----8s10---------8------|
D|-10----10p=8-10---------------|-x\-------------------10---|
A|------------------------------|---------------------------|
E|------------------------------|---------------------------|

E E E E E E E E E E E E E E E E
e|------------------------------|---------------------------|
B|------------------------------|---------------------------|
G|------------------------------|---------------------------|
D|----10----10----10-------10---|----10------10-8-x-10--x---|
A|-10-10----10----10-------10---|----10------10-6-x--8--x---|
E|--8---------------------------|---------------------------|

~~~~~~~~~~~~~~~~~~
a E Q E +H +E E a E E E E a E E
e|---------------------------|---------------------------------|
B|---------------------------|---------------11-11-11-------11-|
G|-8s10--8-------------------|---------10s12----------10s12----|
D|-----------10-(10)---------|-(10)----------------------------|
A|---------------------------|---------------------------------|
E|---------------------------|---------------------------------|

E E E E E E E E E E E E E E E E
e|---------------------------|---------------------------------|
B|---------------------------|---------------------------------|
G|---------------------------|---------------------------------|
D|------10---10------10---10-|------10-------10--8--x----10--x-|
A|---10-10---10------10---10-|------10-------10--6--x-----8--x-|
E|----8----------------------|---------------------------------|

|---3---| |---3---| |----3-----| |--3---|
E a E E E a E E E +E E E E E E E E E S S E E E
e|--------------------------------------|---8--------------------------------------------|
B|-11-------11-11-----------------------|-8------11-8-------8----------------------------|
G|----10s12-12-12-12s10--8-10b12==(10)r-|-------------10------8------10----10------8b8.5-|
D|--------------------------------------|-----------------------10------10----10---------|
A|--------------------------------------|------------------------------------------------|
E|--------------------------------------|------------------------------------------------|

| E E E E E E E E E E E E E E E E
e|--------------------------------------|------------------------------------------------|
B|--------------------------------------|------------------------------------------------|
G|--------------------------------------|------------------------------------------------|
D|-------10----10-------10---------10---|-----10---------10---8----x-------10----x-------|
A|-10----10----10-------10---------10---|-----10---------10---6----x--------8----x-------|
E|--8-----------------------------------|------------------------------------------------|

~
|----3-----| |--3---|
E E S S E E E Q E E Q a E E E E E E
e|-----------------------------------|------------------------|
B|-----------------------------------|------------------------|
G|-----------------------------------|------------------------|
D|-10-------8h10---------------------|------------8-8---------|
A|----10---------10-9----8-6---------|------8s10------10--8-6-|
E|------------------------------8--6-|-8----------------------|

| E E E E E E E E E E E E E E E E
e|-----------------------------------|------------------------|
B|-----------------------------------|------------------------|
G|-----------------------------------|------------------------|
D|-------10-----------10-----10---10-|---10------10-8--x-10-x-|
A|-10----10-----------10-----10---10-|---10------10-6--x--8-x-|
E|--8--------------------------------|------------------------|

~~~
|---3----| |----3----| |---3---| |3-|
E a Q. Q a E E E E E +E E E E E E E Q
e|---------------------------------|---------------------------------------------|
B|------------------------------11-|----11------------11-------11------11----11\-|
G|---------------8b8.5----10s12----|-12-------12-(12)-------12----12------12-----|
D|-10-8s10-------------------------|---------------------------------------------|
A|---------------------------------|---------------------------------------------|
E|---------------------------------|---------------------------------------------|

E E E E E E E E E E E E E E E E
e|---------------------------------|---------------------------------------------|
B|---------------------------------|---------------------------------------------|
G|---------------------------------|---------------------------------------------|
D|------10----10-------10-------10-|-------10------------10-----8----x----10--x--|
A|-10---10----10-------10-------10-|-------10------------10-----6----x-----8--x--|
E|--8------------------------------|---------------------------------------------|

|---3----| |---3----| |3-| |---3----| |---3---| |3-|
a E E E E E E E E E Q a E E E E E E E E E Q
e|-------------------------------------------|-----------------------------------------|
B|-------13----11-------11-------------11----|-------11----11-------11------11----11---|
G|-10s12----12-------12----12----12-12-------|-10s12----12-------12----12------12------|
D|-------------------------------------------|-----------------------------------------|
A|-------------------------------------------|-----------------------------------------|
E|-------------------------------------------|-----------------------------------------|

E E E E E E E E E E E E E E E E
e|-------------------------------------------|-----------------------------------------|
B|-------------------------------------------|-----------------------------------------|
G|-------------------------------------------|-----------------------------------------|
D|-------10-------10----------10----------10-|-------10-------10-----8----x----10----x-|
A|----10-10-------10----------10----------10-|-------10-------10-----6----x-----8----x-|
E|-----8-------------------------------------|-----------------------------------------|

|---3----| |---3----| |3-| |3-|
a E E E E E E E E E Q a E E E Q a E E E E
e|-------------------------------------------|----------------------------------|
B|-------11----11-------11-------11----11----|-------11----11-------------------|
G|-10s12----12-------12----12-------12-------|-10s12----12-------12s10-8--------|
D|-------------------------------------------|---------------------------10-8---|
A|-------------------------------------------|----------------------------------|
E|-------------------------------------------|----------------------------------|

E E E E E E E E E E E E E E E E
e|-------------------------------------------|----------------------------------|
B|-------------------------------------------|----------------------------------|
G|-------------------------------------------|----------------------------------|
D|-------10-------10----------10----------10-|-------10-------10-----8-x-10-x---|
A|----10-10-------10----------10----------10-|-------10-------10-----6-x--8-x---|
E|-----8-------------------------------------|----------------------------------|
~~
|---3----| |---3----| |3-| |3-|
H a E E E E E E E E E Q a E E E Q
e|---------------------------------|----------------------------------------|
B|------------------11----11-------|-11-------11----11----10s11-11----11\---|
G|------------10s12----12-------12-|----12-------12-------11s12----12-------|
D|-10------------------------------|----------------------------------------|
A|---------------------------------|----------------------------------------|
E|---------------------------------|----------------------------------------|

E E E E E E E E E E E E E E E E
e|---------------------------------|----------------------------------------|
B|---------------------------------|----------------------------------------|
G|---------------------------------|----------------------------------------|
D|----10---10-------10-------10----|-------10----------10-----8--x-10-----x-|
A|-10-10---10-------10-------10----|-------10----------10-----6--x--8-----x-|
E|--8------------------------------|----------------------------------------|

|---3----| |---3----| |3-| |3-| |---3----|
a E E E E E E E E E Q a E E E Q a E E +E E E
e|-------------------------------------------|--------------------------------------------|
B|-------11----11-------11-------11----11----|-------11----11----10s11-11-(11)-10s==11----|
G|-10s12----12-------12----12-------12-------|-10s12----12-------11s12---------11s==12----|
D|-------------------------------------------|--------------------------------------------|
A|-------------------------------------------|--------------------------------------------|
E|-------------------------------------------|--------------------------------------------|

E E E E E E E E E E E E E E E E
e|-------------------------------------------|--------------------------------------------|
B|-------------------------------------------|--------------------------------------------|
G|-------------------------------------------|--------------------------------------------|
D|-------10-------10----------10----------10-|-------10-------10-----8--x--10-----x-------|
A|----10-10-------10----------10----------10-|-------10-------10-----6--x---8-----x-------|
E|-----8-------------------------------------|--------------------------------------------|

~~~~~~
|3-| |----3----|
E E E Q a Q Q Q
e|-----------------------------------|
B|-11-10s11-11-----------------------|
G|----11s12-------12s10----8---------|
D|-----------------------------10----|
A|-----------------------------------|
E|-----------------------------------|

| E E E E E E E E
e|-----------------------------------|
B|-----------------------------------|
G|-----------------------------------|
D|----10-------10-------10--------10-|
A|-10-10-------10-------10--------10-|
E|--8--------------------------------|

~~~~~~
+Q. E E E E E
e|-----------------------|
B|---------------8-10----|
G|-----------8-9-------9-|
D|-(10)------------------|
A|-----------------------|
E|-----------------------|

[Interlude]
H. +Q W
e|---8----------(8)---|---------------|
B|--------------------|---------------|
G|--------------------|---------------|
D|--------------------|---------------|
A|--------------------|---------------|
E|--------------------|---------------|

|-3--| |---3---| |-3-| |-3-|
| E E E E E E Q a Q Q Q Q Q Q Q Q Q Q Q Q
e|-----------------------||------5---5-------5-|---5---5---5---|
B|-----------------------||--------------------|---------------|
G|-------------9-x-10\---||--------------------|---------------|
D|------10-----8-x-10\---||-4s5----5---5-------|-4---4---4-----|
A|------10---------10\---||--------------------|---------------|
E|-----------8-----------||--------------------|---------------|

|-3-| |-3-| |-3-| |-3-| |-3-| |-3-| |-3-|
Q Q Q Q Q Q E E E E E +H a Q Q Q Q Q Q Q Q Q Q Q Q
e|---5---5---5-|------------------|-----5---5---5-|---5---5---5--|
B|-------------|------------------|---------------|--------------|
G|-------------|---------2-(2)----|---------------|--------------|
D|-3---3---3---|---------2-(2)----|-4s5---5---5---|-4---4---4----|
A|-------------|-0-0-3h4----------|---------------|--------------|
E|-------------|------------------|---------------|--------------|

|-3-| |-3-| |-3-| |-3-|
Q Q Q Q Q Q E E E E E +Q E E E E E E E E E E E E E Q E E E E
e|---5---5---5-|----------------------|-----------------|-----------------|
B|-------------|----------------------|-----------------|-----------------|
G|-------------|---------2-(2)--2-2-2-|-2-2---2---2---2-|---2-----2---5-2-|
D|-3---3---3---|---------2-(2)--2-2-2-|-2-2---2---2---2-|---2-----5---2---|
A|-------------|-0-0-3h4--------0-0-0-|-0---------------|-------0---0---0-|
E|-------------|----------------------|-----------------|-----------------|
Q E E E Q E

E E E E E E E E E E Q E E E E
e|--------------------|---------------------|
B|--------------------|---------------------|
G|--5b6-2---2---2---2-|---2-----2---5b5.5---|
D|--2---2---2---2---2-|---2-----5---2-------|
A|-(0)----------------|-------0---0-------0-|
E|--------------------|---------------------|
+E E Q H Q E E E Q E

E E E E E E E E E E Q E E E E
e|--------------------|---------------------|
B|--------------------|---------------------|
G|--5b6-2---2---2---2-|---2-----2---5b5.5---|
D|--2---2---2---2---2-|---2-----5---2-------|
A|-(0)----------------|-------0---0-------0-|
E|--------------------|---------------------|
+E E Q H Q E E E Q E

E E E E E E E E W E E E E E E E E
e|-------------------|----------|-----------------|
B|-------------------|----------|-----------------|
G|-5b6-2---2---2---2-|----------|-2-2---2---2---2-|
D|-2---2---2---2---2-|----------|-2-2---2---2---2-|
A|-0-----------------|----------|-0---------------|
E|-------------------|----------|-----------------|
E E Q H

E E E E Q E E E E E E E E E E E E E E Q E E
e|------------------|-----------------|-------------------|
B|------------------|-----------------|-------------------|
G|---2---2-(2)----2-|-2-2---2---2---2-|---2---2-(2)----2--|
D|---2---2-(2)----2-|-2-2---2---2---2-|---2---2-(2)----2--|
A|----------3---5---|-0---------------|----------3---5----|
E|------------------|-----------------|-------------------|

[Outro]
~~~
|--3--|
E E E E E H E Q. +Q E E
e|---------------------|--------------------------|
B|---------------------|--------------------------|
G|---x-----------------|---7b9======(7)r--5b5.5---|
D|---x-7-5---7---------|------------------------7-|
A|---x-----------------|--------------------------|
E|---------------------|--------------------------|

Gtr II
| E E E E E E E E E E E E Q E E
e|---------------------|--------------------------|
B|---------------------|--------------------------|
G|-2-2-----2-----2---2-|---2------2-(2)---------2-|
D|-2-2-----2-----2---2-|---2------2-(2)---------2-|
A|-0-------------------|-------------3----5-------|
E|---------------------|--------------------------|

~~~~~
+W E Q. H
e|-------------------|-----------------------|
B|-------------------|---8b10------8b10------|
G|-------------------|-----------------------|
D|-(7)---------------|-----------------------|
A|-------------------|-----------------------|
E|-------------------|-----------------------|

| E E E E E E E E E E E E Q E E
e|-------------------|-----------------------|
B|-------------------|-----------------------|
G|--2--2---2---2---2-|---2------2-(2)------2-|
D|--2--2---2---2---2-|---2------2-(2)------2-|
A|--0----------------|-------------3-----5---|
E|-------------------|-----------------------|

|---3----| |---3---|
E Q. +Q +E +E E E Q. +Q E +E E
e|------------------------------------|-----------------------------|
B|-[8]b10-8b10======(8)---(8)r(8)---5-|-8-8pb10======(8)--8r(8)p==5-|
G|------------------------------------|-----------------------------|
D|------------------------------------|-----------------------------|
A|------------------------------------|-----------------------------|
E|------------------------------------|-----------------------------|

E E E E E E E E E E E E Q E E
e|------------------------------------|-----------------------------|
B|------------------------------------|-----------------------------|
G|--2-----2-------2-----2---------2---|---2--------2-(2)--------2---|
D|--2-----2-------2-----2---------2---|---2--------2-(2)--------2---|
A|--0---------------------------------|---------------3---5---------|
E|------------------------------------|-----------------------------|

~~~~~~~~~~~~~
|-----3-----| |------3------|
Q Q Q Q Q Q H +E E Q
e|-----------------------------------------|-------------------------|
B|-[8]-------------------------------------|-------------------------|
G|-------7b9---[7]---[5]b6---[7]---[5]b7---|-----------------7b9=====|
D|-----------------------------------------|-[7]-------(7)-7---------|
A|-----------------------------------------|-------------------------|
E|-----------------------------------------|-------------------------|

E E E E E E E E E E E E Q E E
e|-----------------------------------------|-------------------------|
B|-----------------------------------------|-------------------------|
G|--2--2-----------2-------2-------------2-|-----2---2-(2)--------2--|
D|--2--2-----------2-------2-------------2-|-----2---2-(2)--------2--|
A|--0--------------------------------------|------------3----5-------|
E|-----------------------------------------|-------------------------|

|3-|
Q e e E Q e e +Q E E +Q E E
e|--------------------------------|------------------------------------|
B|-------5-8----------------------|------------------------------------|
G|--7r---------[7]b9---[7]-[5]b7==|=(5)r---[5]b6----------[5]b6-[7]b9==|
D|--------------------------------|--------------[7]-(7)---------------|
A|--------------------------------|------------------------------------|
E|--------------------------------|------------------------------------|

E E E E E E E E E E E E Q E E
e|--------------------------------|------------------------------------|
B|--------------------------------|------------------------------------|
G|-(2)-2---2---------2------2-----|------2--------2--(2)---------2-----|
D|-(2)-2---2---------2------2-----|------2--------2--(2)---------2-----|
A|--0-----------------------------|-------------------3----5-----------|
E|--------------------------------|------------------------------------|

|------3-------| |-------3-------|
+Q Q Q Q Q Q Q Q E +E E E
e|------------------------------------------------|--------------------------------|
B|------------------------------------------------|--------------------------------|
G|-(7)r---[7]b9---[7]b9---[7]b9---[7]b9---[7]b9---|-[7]b9---[5]---[5]b7==(5)r------|
D|------------------------------------------------|---------------------------7-5--|
A|------------------------------------------------|--------------------------------|
E|------------------------------------------------|--------------------------------|

| E E E E E E E E E E E E Q E E
e|------------------------------------------------|--------------------------------|
B|------------------------------------------------|--------------------------------|
G|-(2)--2---------------2-------2---------------2-|-------2-----2-(2)-----------2--|
D|-(2)--2---------------2-------2---------------2-|-------2-----2-(2)-----------2--|
A|--0---------------------------------------------|----------------3----------5----|
E|------------------------------------------------|--------------------------------|

~~~
|--3---| |3| |--3---|
H Q E Q e E +H E +E E E E
e|------------------------------|--------------------------------|
B|------------------------------|--------------------------------|
G|---------5b7-----7---5-[7]b9==|=([7])--------7r=(7)p5-7-[5]b7==|
D|--7---------------------------|--------------------------------|
A|------------------------------|--------------------------------|
E|------------------------------|--------------------------------|

| E E E E E E E E E E E E Q E E
e|------------------------------|--------------------------------|
B|------------------------------|--------------------------------|
G|-(2)-2-------2-----2----2-----|-------2---2-(2)----------2-----|
D|-(2)-2-------2-----2----2-----|-------2---2-(2)----------2-----|
A|--0---------------------------|--------------3--------5--------|
E|------------------------------|--------------------------------|

~~~~~~~~~~~~~~~
|----3----|
+Q +E E +H +Q a E E E +Q +E E
e|---------------------------|--------------------------------------|
B|---------------------------|-----------8-[10]b12==([10])r([10])p8-|
G|-([5])r==([5])-------------|-------7s9----------------------------|
D|---------------7-(7)-------|-(7)----------------------------------|
A|---------------------------|--------------------------------------|
E|---------------------------|--------------------------------------|

E E E E E E E E E E E E Q E E
e|---------------------------|--------------------------------------|
B|---------------------------|--------------------------------------|
G|--(2)--2-------2-----2---2-|-----2-----2--(2)-------------------2-|
D|--(2)--2-------2-----2---2-|-----2-----2--(2)-------------------2-|
A|---0-----------------------|---------------3----------------5-----|
E|---------------------------|--------------------------------------|

~~~~~~~ ~~~~~~~~
|--3---| |--3--|
e e E E +Q E +Q +Q E E +Q E E E
e|--------------------8b10==(8)---|-(8)r---8b8.5--------------------|
B|--8--10---10-(10)---------------|--------------[10]-(10)----------|
G|--------------------------------|-------------------------7s8s==9-|
D|--------------------------------|---------------------------------|
A|--------------------------------|---------------------------------|
E|--------------------------------|---------------------------------|

E E E E E E E E E E E E Q E E
e|--------------------------------|---------------------------------|
B|--------------------------------|---------------------------------|
G|-(2)--2----2------2-----------2-|------2---------2---(2)------2---|
D|-(2)--2----2------2-----------2-|------2---------2---(2)------2---|
A|--0-----------------------------|---------------------3---5-------|
E|--------------------------------|---------------------------------|

|----3-----| |--------3--------| |-3--| |--3--|
Q a Q Q Q Q Q Q. +E E E E E E E
e|-----------------------------------------|---------------------------5--|
B|--8--------------------------------------|---------------------8p7------|
G|-------9s7---5---[7]b8---[7]b7.5---[5]---|-------------------5----------|
D|-----------------------------------------|-[7]-----(7)--4h=7------------|
A|-----------------------------------------|------------------------------|
E|-----------------------------------------|------------------------------|

E E E E E E E E E E E E Q E E
e|-----------------------------------------|------------------------------|
B|-----------------------------------------|------------------------------|
G|-(2)-2---------2-------2---------------2-|-----2----2--(2)---------2----|
D|-(2)-2---------2-------2---------------2-|-----2----2--(2)---------2----|
A|--0--------------------------------------|--------------3------5--------|
E|-----------------------------------------|------------------------------|

|-----3------|
q E +E E +E Q E E E +E E a Q E E
e|-----------------------------------|--------------------------------------|
B|--7----5b5.5-(5)-------------------|--------------------------------------|
G|-----------------[7]b9-([7])-5b7---|--------------------------------------|
D|-----------------------------------|-7p5-[5]b7-([5])---7--------------[7]-|
A|-----------------------------------|---------------------7s=5---[3]b4-----|
E|-----------------------------------|--------------------------------------|

E E E E E E E E E E E E Q E E
e|-----------------------------------|--------------------------------------|
B|-----------------------------------|--------------------------------------|
G|-(2)-2--------2----------2-------2-|---2-------------2-----(2)---------2--|
D|-(2)-2--------2----------2-------2-|---2-------------2-----(2)---------2--|
A|--0--------------------------------|------------------------3----5--------|
E|-----------------------------------|--------------------------------------|

|------3------|
E +E E +E E E Q Q E E E +E +E E E
e|---------------------------------------|------------------------------------------------|
B|---------------------------------------|------------------------------------------------|
G|---------------------------------------|-------[5]b6-----[7]b9==([7])r([7])-[5]b5.5-----|
D|---------------------------------------|-[7]---------[7]----------------------------[7]-|
A|-[5]b7-(5)-[3]b5-(3)-[5]b5.5p3-[3]b4---|------------------------------------------------|
E|---------------------------------------|------------------------------------------------|

E E E E E E E E E E E E Q E E
e|---------------------------------------|------------------------------------------------|
B|---------------------------------------|------------------------------------------------|
G|-(2)----2---------2----------2-------2-|-----2--------2--(2)-------------------------2--|
D|-(2)----2---------2----------2-------2-|-----2--------2--(2)-------------------------2--|
A|--0------------------------------------|------------------3------------------5----------|
E|---------------------------------------|------------------------------------------------|

|---3----| |---3----|
E E E E E E E E E +e E +e E +e E +e E +e
e|---------------------------------------------|-------------------------------------------------|
B|---------------------------------------------|-------------------------------------------------|
G|-[7]-[7]p==6-[7]-[7]p==x-5b5.5---[7]b9==(7)r-|-[7]b9==(7)r-[7]b9==(7)r-[7]b9==(7)r-[7]b9==(7)r-|
D|-------------------------5b5.5---------------|-------------------------------------------------|
A|---------------------------------------------|-------------------------------------------------|
E|---------------------------------------------|-------------------------------------------------|

E E E E E E E E E E E E Q E E
e|---------------------------------------------|-------------------------------------------------|
B|---------------------------------------------|-------------------------------------------------|
G|-(2)-----2-----------2---------2---------2---|---------2-----------2---(2)-----------------2---|
D|-(2)-----2-----------2---------2---------2---|---------2-----------2---(2)-----------------2---|
A|--0------------------------------------------|--------------------------3-----------5----------|
E|---------------------------------------------|-------------------------------------------------|

E +e E +e E +e E +e E +e E +e E +e E +e
e|-------------------------------------------------|-------------------------------------------------|
B|-------------------------------------------------|-------------------------------------------------|
G|-[7]b9==(7)r-[7]b9==(7)r-[7]b9==(7)r-[7]b9==(7)r-|-[7]b9==(7)r-[7]b9==(7)r-[7]b9==(7)r-[7]b9==(7)r-|
D|-------------------------------------------------|-------------------------------------------------|
A|-------------------------------------------------|-------------------------------------------------|
E|-------------------------------------------------|-------------------------------------------------|

E E E E E E E E E E E E Q E E
e|-------------------------------------------------|-------------------------------------------------|
B|-------------------------------------------------|-------------------------------------------------|
G|-(2)-----2-----------2-----------2-----------2---|---------2-----------2---(2)-----------------2---|
D|-(2)-----2-----------2-----------2-----------2---|---------2-----------2---(2)-----------------2---|
A|--0----------------------------------------------|--------------------------3-----------5----------|
E|-------------------------------------------------|-------------------------------------------------|

E +e Q Q Q Q Q Q E E
e|------------------------------------|------------------------------|
B|------------------------------------|------------------------------|
G|--7b9==(7)r-[7]b9---[7]b9---[7]b9---|-[7]b9---7b9---[7]b9--[7]b9-5-|
D|------------------------------------|------------------------------|
A|------------------------------------|------------------------------|
E|------------------------------------|------------------------------|

E E E E E E E E E E E E Q E E
e|------------------------------------|------------------------------|
B|------------------------------------|------------------------------|
G|-(2)----2---------2-------2-------2-|-------2-----2-(2)----------2-|
D|-(2)----2---------2-------2-------2-|-------2-----2-(2)----------2-|
A|--0---------------------------------|----------------3------5------|
E|------------------------------------|------------------------------|

~ ~~ ~~~~~~~~~
|--3--|
Q H E E E E a Q E Q Q
e|-----------------------|-5------------------------|
B|---------------------5-|---8s10---10-10---[10]----|
G|---------------5h6-----|--------------------------|
D|-[7]---7---------------|--------------------------|
A|-----------------------|--------------------------|
E|-----------------------|--------------------------|

E E E E E E E E E E E E Q E E
e|-----------------------|--------------------------|
B|-----------------------|--------------------------|
G|-(2)-2---2---2-----2---|------2----2-(2)-------2--|
D|-(2)-2---2---2-----2---|------2----2-(2)-------2--|
A|--0--------------------|--------------3-----5-----|
E|-----------------------|--------------------------|

~~~~~~
|-3--| |--3--|
H Q Q Q Q E E E E E E
e|--------------------------------|-5---5-------------------|
B|-[8]b10-------[8]b10---[8]b10---|----------8p=5-----------|
G|--------------------------------|---------------7-5h7p==5-|
D|--------------------------------|-------------------------|
A|--------------------------------|-------------------------|
E|--------------------------------|-------------------------|

| E E E E E E E E E E E E Q E E
e|--------------------------------|-------------------------|
B|--------------------------------|-------------------------|
G|-(2)----2---2--------2--------2-|---2---2-(2)---------2---|
D|-(2)----2---2--------2--------2-|---2---2-(2)---------2---|
A|--0-----------------------------|----------3------5-------|
E|--------------------------------|-------------------------|

~~~ ~~~~
|--3--|
H. E E E E E E E E E E E
e|-----------------------|-5-----------------5--|
B|---------------------5-|-5-8-8-8--8p=5-----5--|
G|---------------5h6-----|---------------7b9----|
D|--7--------------------|----------------------|
A|-----------------------|----------------------|
E|-----------------------|----------------------|

E E E E E E E E E E E E Q E E
e|-----------------------|----------------------|
B|-----------------------|----------------------|
G|-(2)-2---2---2-----2---|---2---2-(2)-------2--|
D|-(2)-2---2---2-----2---|---2---2-(2)-------2--|
A|--0--------------------|----------3----5------|
E|-----------------------|----------------------|

|---3----| |-3--|
Q +E E E +E E E E +Q E E E E E Q
e|-/8---(8)\-----/8-(8)-----------|-----------------------|
B|-/8---(8)\-----/8-(8)---7-5-----|-(5)-------------------|
G|-/9---(9)\-----/9-(9)-7-7-5b5.5-|-(5)-------------------|
D|------------------------7-------|-------7-5-------------|
A|--------------------------------|------------7--6-5-3---|
E|--------------------------------|-----------------------|

| E E E E E E E E E E E E Q E E
e|--------------------------------|-----------------------|
B|--------------------------------|-----------------------|
G|--2-2--------2--------2---2-----|-----2---2-(2)-------2-|
D|--2-2--------2--------2---2-----|-----2---2-(2)-------2-|
A|--0-----------------------------|------------3------5---|
E|--------------------------------|-----------------------|

e Q +E Q a E E E E +E E E E E E
e|-----/8---(8)\-/8-----------|-------------5-------------------|
B|-----/8---(8)\-/8-----------|-----------------8---------------|
G|-----/9---(9)\-/9---9s7-[5]-|-5-7b9==(7)-(7)-(7)r(7)p5-[7]b9==|
D|-/7-------------------------|---------------------------------|
A|----------------------------|---------------------------------|
E|----------------------------|---------------------------------|

E E E E E E E E E E E E Q E E
e|----------------------------|---------------------------------|
B|----------------------------|---------------------------------|
G|-(2)--2----2------2------2--|---2---------2--(2)--------2-----|
D|-(2)--2----2------2------2--|---2---------2--(2)--------2-----|
A|--0-------------------------|-----------------3------5--------|
E|----------------------------|---------------------------------|
~
|-------3-------|
E E +Q Q E E Q Q Q Q E E
e|-----------------------------------------|------------------------------------|
B|-----------------------------------------|------------------------------------|
G|--7r-[7]b9-([7])b9---[7]b9---[7]b9-[7]b9-|-[7]b9---[7]b9---[7]b9---[7]b9--5---|
D|-----------------------------------------|----------------------------------7-|
A|-----------------------------------------|------------------------------------|
E|-----------------------------------------|------------------------------------|

E E E E E E E E E E E E Q E E
e|-----------------------------------------|------------------------------------|
B|-----------------------------------------|------------------------------------|
G|-(2)--2------------2-------2--------2----|-------2---------------2-(2)------2-|
D|-(2)--2------------2-------2--------2----|-------2---------------2-(2)------2-|
A|--0--------------------------------------|--------------------------3-----5---|
E|-----------------------------------------|------------------------------------|

~~~~~~~~~~~~~
|--3--|
+Q E E E a E E E E Q. E +Q E E
e|-------------------------|-----------------7s--|
B|-------------------------|-----------------7s--|
G|-------------------------|-----------------8s--|
D|-(7)---------5-----------|-7------7-(7)--------|
A|-------5h7-----7s5-3h5-3-|---------------------|
E|-------------------------|---------------------|

E E E E E E E E E E E E Q E E
e|-------------------------|---------------------|
B|-------------------------|---------------------|
G|-(2)-2-----2-------2---2-|----2---2-(2)----2---|
D|-(2)-2-----2-------2---2-|----2---2-(2)----2---|
A|--0----------------------|-----------3---5-----|
E|-------------------------|---------------------|

Q Q Q E E +E E Q Q E E
e|--8\---/8\---/8-----------|------------------7s|
B|--8\---/8\---/8---7-5-----|-(5)--------------7s|
G|--9\---/9\---/9---7-5b5.5-|-(5)--------------8s|
D|--------------------------|-----x-7----7---7---|
A|--------------------------|-------0----7---7---|
E|--------------------------|------------5---5---|

E E E E E E E E E E E E Q E E
e|--------------------------|--------------------|
B|--------------------------|--------------------|
G|-(2)-2-----2----2---2-----|-----2---2-(2)----2-|
D|-(2)-2-----2----2---2-----|-----2---2-(2)----2-|
A|--0-----------------------|------------3---5---|
E|--------------------------|--------------------|

E E E E Q E E +E E Q Q E a E
e|--8----8-7s8\-----------|------------------7s8--|
B|--8s=7-8-7s8\---7-5-----|-(5)--------------7s8--|
G|--9s=7-9-8s9\---7-5b5.5-|-(5)--------------8s9--|
D|------------------------|-----x-7----7----------|
A|------------------------|-------0----7---0------|
E|------------------------|------------5----------|

E E E E E E E E E E E E Q E E
e|------------------------|-----------------------|
B|------------------------|-----------------------|
G|-(2)-2---2----2---2-----|-----2---2-(2)------2--|
D|-(2)-2---2----2---2-----|-----2---2-(2)------2--|
A|--0---------------------|------------3---5------|
E|------------------------|-----------------------|

+E E Q Q E E +E E Q Q E E
e|-(8)---8\---/8-----------|------------------7s|
B|-(8)-7-8\---/8---7-5-----|-(5)--------------7s|
G|-(9)-7-9\---/9---7-5b5.5-|-(5)--------------8s|
D|-------------------------|-----x-7----7---7---|
A|-------------------------|-------0----7---7---|
E|-------------------------|------------5---5---|

E E E E E E E E E E E E Q E E
e|-------------------------|--------------------|
B|-------------------------|--------------------|
G|--2--2----2----2---2-----|-----2---2-(2)----2-|
D|--2--2----2----2---2-----|-----2---2-(2)----2-|
A|--0----------------------|------------3---5---|
E|-------------------------|--------------------|

E E E E Q E E +Q Q Q E E
e|--8----8-7s8\-----------|------------------7s=|
B|--8s=7-8-7s8\---7-5-----|-(5)--------------7s=|
G|--9s=7-9-8s9\---7-5b5.5-|-(5)--------------8s=|
D|------------------------|-------7----7---7----|
A|------------------------|-------7----7---7----|
E|------------------------|-------5----5---5----|

| E E E E E E E E E E E E Q E E
e|------------------------|---------------------|
B|------------------------|---------------------|
G|-(2)-2---2----2---2-----|-----2---2-(2)----2--|
D|-(2)-2---2----2---2-----|-----2---2-(2)----2--|
A|--0---------------------|------------3---5----|
E|------------------------|---------------------|

E E Q Q Q Q Q Q E E E Q E Q Q
e|-8---/8---/8---/8---|------------------|-----/8-----/8-------*|
B|-8s7-/8---/8---/8---|-7---5------------|-----/8s==7-/8-------*|
G|-9s7-/9--------/9---|-7---5----------5-|-----/9s==7-/9-------*|
D|--------------------|----------7---7---|---------------------*|
A|--------------------|----------0---0---|---------------------*|
E|--------------------|------------------|---------------------*|

| E E E E E E E E E E E E Q E E E E E E E E E E
e|--------------------|------------------|---------------------*|
B|--------------------|------------------|---------------------*|
G|-2-2----2----2----2-|---2---2-(2)----2-|-(2)--2---2----2---2-*|
D|-2-2----2----2----2-|---2---2-(2)----2-|-(2)--2---2----2---2-*|
A|-0------------------|----------3---5---|--0------------------*|
E|--------------------|------------------|---------------------*|

*************************************************************************

h - hammer-on
p - pull-off
b - bend
pb - pre-bend
r - bend release (if no number after the r, then release immediately)
/\ - slide into or out of (from/to "nowhere")
s - legato slide
S - shift slide
- natural harmonic
[n] - artificial harmonic
n(n) - tapped harmonic
~ - vibrato
tr - trill
T - tap
TP - trem. picking
PM - palm muting
\n/ - tremolo bar dip; n = amount to dip
\n - tremolo bar down
n/ - tremolo bar up
/n\ - tremolo bar inverted dip
= - hold bend; also acts as connecting device for hammers/pulls
<> - volume swell (louder/softer)
x - on rhythm slash represents muted slash
o - on rhythm slash represents single note slash

**************************************************************************

[Misc Legend]
| - bar
|| - double bar
||o - repeat start
o|| - repeat end
*| - double bar (ending)
: - bar (freetime)
$ - Segno
& - Coda
Tempo markers - = BPM(8/16=s8/s16), where s8 = swing 8ths, s16 = swing 16ths

(W - whole; H - half; Q - quarter; E - 8th; S - 16th; T - 32nd; X - 64th; a - acciaccatura
+ - note tied to previous; . - note dotted; .. - note double dotted
Uncapitalized letters represent notes that are staccato (1/2 duration)
Irregular groupings are notated above the duration line
Duration letters will always appear directly above the note/fret number it represents the
duration for. Duration letters with no fret number below them represent rests. Multi-
bar rests are notated in the form Wxn, where n is the number of bars to rest for. Low
melody durations appear below the staff)

**************************************************************************
Song info
La Grange
ZZ Top
2001
  • Blues
  • Rock
  • Electric Blues
Similar songs
Texas Flood - Stevie Ray Vaughan
La Garange - ZZ Top

Hi! Hope you enjoy backing track experience.
If you want to help us in the development of the project, feel free to donate!