If You Want Blood - AC/DC
00:00 / 00:00
Tabs and lyrics
Tunning: Standard (E A D G B e)
Tabbed by AD aka dudebud
AC/DC - If you want blood
highway to hell

this is a kick ass song and u should all know it


[Intro + Verse]

e|------------------------|-------3----3--2-------|------------------------|
B|--2-------3-----2----3--|-------3----3--3-------|--2-------3-----2----3--|
G|--2-------2-----2----2--|-------0----0--2-------|--2-------2-----2----2--|
D|--2-------0-----2----0--|-------0----0--0-------|--2-------0-----2----0--|
A|--0----x-----x--0-------|----x---------------x--|--0----x-----x--0-------|
E|------------------------|-----------------------|------------------------|

e|-------3----3--2-------|------------------------|-------3----3--2-------|
B|-------3----3--3-------|--2-------3-----2----3--|-------3----3--3-------|
G|-------0----0--2-------|--2-------2-----2----2--|-------0----0--2-------|
D|-------0----0--0-------|--2-------0-----2----0--|-------0----0--0-------|
A|----x---------------x--|--0----x-----x--0-------|----x---------------x--|
E|-----------------------|------------------------|-----------------------|

if you want blood...
e|------------------------|-------3----3--2--2----|-------------3----2--|
B|--2-------3-----2----3--|-------3----3--3--3----|--2----------3----3--|
G|--2-------2-----2----2--|-------0----0--2--2----|--2----------0----2--|
D|--2-------0-----2----0--|-------0----0--0--0----|--2----------0----0--|
A|--0----x-----x--0-------|----x------------------|--0----------2-------|
E|------------------------|-----------------------|-------------3-------|

e|------------------|-------------3----2--|------------------|
B|------------------|--2----------3----3--|------------------|
G|------------------|--2----------0----2--|------------------|
D|------------------|--2----------0----0--|------------------|
A|------------------|--0----------2-------|------------------|
E|------------------|-------------3-------|------------------|

e|-------------3----2--|------------------|-------------3----2--|
B|--2----------3----3--|------------------|--2----------3----3--|
G|--2----------0----2--|------------------|--2----------0----2--|
D|--2----------0----0--|------------------|--2----------0----0--|
A|--0----------2-------|------------------|--0----------2-------|
E|-------------3-------|------------------|-------------3-------|

e|------------------|-------------3----2--|------------------|
B|------------------|--2----------3----3--|------------------|
G|------------------|--2----------0----2--|------------------|
D|------------------|--2----------0----0--|------------------|
A|------------------|--0----------2-------|------------------|
E|------------------|-------------3-------|------------------|


[Solo 1]

Slowly
e||----------------------------------------------5---------------------|
B||----------------------------------------7b~~----5--9b--10-8---------|
G||---------5-7-5---5--5-5---5-5-5---5-5-5---------------------9-7h8p7-|
D||---------------7--------7-------7-----------------------------------|
A||--------------------------------------------------------------------|
E||-3b-----------------------------------------------------------------|

e|------------10~~\-7/10~~----10-10----10-10-----10-10--10~~~----5-8-5-8-5-|
B|-------------------------12-------12-------12b---------------8-----------|
G|--7-5b-------------------------------------------------------------------|
D|9------7-7---------------------------------------------------------------|
A|-------------------------------------------------------------------------|
E|-------------------------------------------------------------------------|

e|------------------------------------------------------------------|
B|8-5-8-5---------------------------5-5---5-5---5-5-----------------|
G|--------7-5-7-5---5-7-7--5--------5-5---5-5---5-5-etc...---5\-----|
D|----------------7----------7~~--7-----7-----7-------------------5b|
A|------------------------------------------------------------------|
E|------------------------------------------------------------------|

e|----------17b~~~-----------------------------------------|
B|-----0/--------------------------------------------------|
G|/17------------------------------------------------------|
D|---------------------------------------------------------|
A|---------------------------------------------------------|
E|---------------------------------------------------------|


[After solo]

e|-------------------2--|----3--3----3--2------|---------------------|
B|--2------3----2----3--|----3--3----3--3------|----2------3----2----|
G|--2------2----2----2--|----2--2----2--2------|----2------2----2----|
D|--2------2----2----0--|----0--0----0--0------|----2------2----2----|
A|--0------0----0-------|----------------------|----0------0----0----|
E|----------------------|----------------------|---------------------|

e|------------------------|-------------------2--|----3--3----3--2------|
B|------------------------|--2------3----2----3--|----3--3----3--3------|
G|------------------------|--2------2----2----2--|----2--2----2--2------|
D|----------0-------------|--2------2----2----0--|----0--0----0--0------|
A|-------0--------0--3----|--0------0----0-------|----------------------|
E|----2--------3----------|----------------------|----------------------|

e|---------------------|------------------------|
B|----2------3----2----|------------------------|
G|----2------2----2----|------------------------|
D|----2------2----2----|----------0-------------|
A|----0------0----0----|-------0--------0--3----|
E|---------------------|----2--------3----------|


[Solo]

e|----------------------------------------------------------------17-------|
B|-17b-------------------------------17------------------------------17----|
G|-----17--14~~--------14-16-16b-16b-----16b-14h16p14-----14--16b-------16b|
D|---------------14-16---------------------------------16------------------|
A|-------------------------------------------------------------------------|
E|-------------------------------------------------------------------------|

e|17------------------------------------------------------17~~~-14-17-17-|
B|---17----------------17----17------------17----17----17----------------|
G|------16b-etc...--16----16----16-14~~-16----16----16-------------------|
D|-----------------------------------------------------------------------|
A|-----------------------------------------------------------------------|
E|-----------------------------------------------------------------------|

e|14-17-17~~~--20b--20b-20b-20b-20b~~~~--17-20-19-17h19p17--17b---|
B|----------------------------------------------------------20b---|
G|----------------------------------------------------------------|
D|----------------------------------------------------------------|
A|----------------------------------------------------------------|
E|----------------------------------------------------------------|



************************************

| x Dead note
| h Hammer-on
| p Pull-off
| b Bend
| / Slide up
| \ Slide down
| ~ Vibrato

************************************
Tunning: Standard (E A D G B e)
----------------------------------------------------------------------------
IF YOU WANT BLOOD - ACDC
----------------------------------------------------------------------------

tabbed by Ryan Boone

Intro/Verse

e|-------------3-3-2--------|
B|-----3---3---3-3-3--------|
G|-2---2-2-2---0-0-2--------|
D|-2---0-2-0---0-0-0--------| play 16 times
A|-0-0---0---0--------------|
E|-----2---2---3-3----------|

Chorus

e|------3-2---|
B|------3-3---|
G|-2----0-2---|
D|-2----0-0---| play 7 times
A|-0----------|
E|------3-----|

play verse 10 more times
then the chorus 7 more times

solo

e|-------------------------------------------------------5---|
B|-----------------------------------------------7br-------5-|
G|--------5---7-5---5---5-5------5--5-5-----5-5--7br---------|
D|----------7-----7-5------------5--5-5-----5-5--------------|
A|---------------------------5h7--------5h7------------------|
E|-3b--------------------------------------------------------|

e|------5----------------------------------------------------|
B|-8b-----5-8-------------------------------13br--13br-------|
G|------------5br----7---5-----------------------------------|
D|-----------------7---7--------7-7--------------------------|
A|-----------------------------------------------------------|
E|-----------------------------------------------------------|

e|-10--------10-10--------10-10------------5-8p5---5---------|
B|----10-13b-------10--13-------10-13b--8b-------8---8p5-7brb|
G|-----------------------------------------------------------|
D|-----------------------------------------------------------|
A|-----------------------------------------------------------|
E|-----------------------------------------------------------|

e|-----------------------------------------------------------|
B|-7p5-----5-5--------5-5-------5---5-----5-----5-5-x-x-5--5-|
G|-----7-7------7-----5-5-------5---5-----5-5-5-5-5-x-x-5--5-|
D|---------7----------------7-7-------5-5--------------------|
A|-----------------------------------------------------------|
E|-----------------------------------------------------------|

e|-----------------------15b--------|
B|-------------13\---5\-------------|
G|----------------------------------|
D|-5b6b7-5-7------------------------|
A|----------------------------------|
E|----------------------------------|


End of solo

e|--------------3-3---2-2-|--------------------------|
B|----3-----3---3-3---3-3-|----3-----3---------------|
G|-2--2--2--2---0-0---2-2-|-2--2--2--2---------------|
D|-2--0--2--0---0-0---0-0-|-2--0--2--0-----0-----0---| play this several
A|-0-----0----------------|-0-----0------0-----0---3-| times
E|--------------3-3-------|------------2-----3-------|


play main riff to the end of the song still working on the last solo,
please rate.
Song info
If You Want Blood
AC/DC
2001
  • Rock
  • Hard Rock
Alternative tracks
Similar songs
Valleys Of Neptune - Jimi Hendrix
Let It Roll - Velvet Revolver
Monkey Business - Skid Row
Monsters In The Parasol - Queens of the Stone Age

Hi! Hope you enjoy backing track experience.
If you want to help us in the development of the project, feel free to donate!