Rooster - Alice in Chains
00:00 / 00:00
Tabs and lyrics
Tunning: Standard (E A D G B e)
tabed by:Michael Peach
song: rooster
album: unplugged
tuning: half step

This is probably the easiest a.i.c. tab there is.
I have played this song over and over and it is completly
correct.


[Verse 1]

e|---2------0-0-0-0-0-----5------0-0-0-0-0----------|
B|---2------0-0-0-0-0-----5------0-0-0-0-0----------|
G|---3--3---3-3-3-3-3-----6--6---6-6-6-6-6----------|
D|---4--4---4-4-4-4-4-----7--7---7-7-7-7-7----------|
A|---4--4---4-4-4-4-4-----7--7---7-7-7-7-7----------|
E|---2--2---0-0-0-0-0-----5--5---0-0-0-0-0----------|

part where he says "yeah here comes the rooster"

e|--------------------------------------------------|
B|--------------------------------------------------|
G|--------------------------------------------------|
D|---9-9-9-9-9-9-9-9--12-12-12-12-12-12-12-12-------|
A|---9-9-9-9-9-9-9-9--12-12-12-12-12-12-12-12-------|
E|---7-7-7-7-7-7-7-7--10-10-10-10-10-10-10-10-------|

e|---0-2-2---0-2---2-2-2----------------------------|
B|---0-2-2---0-2---2-2-2----------------------------|
G|---3-3-3---3-3-4-3-3-3----------------------------|
D|---4-4-4---4-4-4-4-4-4----------------------------|
A|---4-4-4---4-4-2-4-4-4----------------------------|
E|---0-2-2---0-2---2-2-2----------------------------|

then the part where he says "you know he aint gonna die"

e|---0--2---2--2--2---------------------2-----------|
B|---0--2---2--2--2---------------------2-----------|
G|---1--3---3--3--3-------2-------------3-----------|
D|---2--4---4--4--4-------2-------------4-----------|
A|---2--4---4--4--4-------0--4-4-3-2-0--4-----------|
E|---0--2---2--2--2--0-0----------------2-----------|


[Solo]

e|--------------------------------------------------|
B|--------------------------------------------------|
G|--------------------------------------------------|
D|--------------------------------------------------|
A|---2-1-2/4--4--2-1-/4--1--------------------------|
E|-------------------------2-0----------------------|

e|--------------------------------------------------|
B|-----------------5--------------------------------|
G|------------2-4b---4--2-4-2-4-2-2-----------------|
D|---2----2-4---------------------------------------|
A|--------------------------------------------------|
E|--------------------------------------------------|

e|--------------------------------------------------|
B|--------------------------------------------------|
G|--------------------------------------------------|
D|--------------------------------------------------|
A|---2-1-2/4--4--2-1-/4--1--------------------------|
E|-------------------------2-0----------------------|

e|--------------------------------------------------|
B|---5--2-------------------------------------------|
G|--------4-2-4p2-2-------2-------------------------|
D|--------------------------------------------------|
A|--------------------------------------------------|
E|---------------------------0--0-------------------|

e|--------------------------------------------------|
B|--------------------------------------------------|
G|----------------------------------------9-----9---|
D|--------------------------------------------------|
A|---2-1-2/4--4/9--7--9--/11--9-7-7-9--7-----7------|
E|--------------------------------------------------|



************************************

| p Pull-off
| b Bend
| / Slide up

************************************
Tunning: Standard (E A D G B e)
Alice In Chains-Rooster~Unplugged
By Jerry Cantrell

Chords Used: B~1-3-4-2-1-1-----| (7th fret)
D~1-3-4-2-1-1 (10-|th fret)
E~0-3-4-2-0-0-----|
F#~1-3-4-2-1-1-----|
F#5~1-3-x-x-x-x-----|
BII~x-1-3-3-3-x-----|

Tune Down 1/2 Step
1)Eb 4)Db
2)Bb 5)Ab
3)Gb 6)Eb


[Intro]

Slowly=69

Gtr. 1(acous.)

E--2--------0------------------0--- -----------0------------------0------------|
B--2--------0------0---0---0---0--- -----------0----------0-------0------------|
G--3----3---3------3---3---3------- --6----6---6------6---6---6----------------|
D--4----4---4------4---4---4------- --7----7---7------7---7---7----------------|
A--4----4---4------4---4---4------- --7----7---7------7---7---7----------------|
E--2----2---0------0---0---0------- --5----5---0------0---0---0----------------|
Do through out Intro/Verse

Gtr. 2
F# F#7add11/E A Aadd9/E F# F#7add11/E F# F#7add11/E A Aadd9/E
Harm...let ring
E----------------12---------------- ----------------------------12-----------|
B-------------12------------------- -------------------------12--------------|
G---------------------------------- -----------------------------------------|
D---------------------------------- -----------------------------------------|
A---------------------------------- -----------------------------------------|
E---------------------------------- -----------------------------------------|

F# F#7add/E A Aadd9/E F#7add11/E A Aadd9/E
E---(12)-------------------------- ------------------------------------------|
B--------------------------------- ------------------------------------------|
G--------------------------------- ------------------------------------------|
D--------------------------------- ------------------------------------------|
A--------------------------------- ------------------------------------------|
E--------------------------------- ------------------------------------------|
Oo,____________________ oo,_____________________ oo,__________

F# F#7add/E A Aadd9/E F#7add11/E A Aadd9/E
E--------------------------------- --------------12--------------------------|
B--------------------------------- -----------12-----------9/11--------------|
G--------------------------------- ------------------------------------------|
D--------------------------------- ------------------------------------------|
A--------------------------------- ------------------------------------------|
E--------------------------------- ------------------------------------------|
Oo,____________ oo,________________ oo,_____ oo,____________



[Verse]

F# F#7add/E A Aadd9/E F# F#7add11/E
E--------------------------------- ------------------------------------------|
B--------------------------------- ------------------------------------------|
G--------------------------------- ------------------------------------------|
D--------------------------------- ------------------------------------------|
A----11--------------------------- ------------------------------------------|
E--------------------------------- ------------------------------------------|
1. Ain't found a way to kill_____ me yet Eyes____ burn____ with

A Aadd9/E F# F#7add11/E A Aadd9/E F# F#7add11/E
E--------------------------------- ------------------------------------------|
B--------------------------------- ------------------------------12----------|
G--------------------------------- ------------------------------------------|
D--------------------------------- ------------------------------------------|
A--------------------------------- ------------------------------------------|
E--------------------------------- ------------------------------------------|
sting-in' sweat. __ Seems ev-'ry path___ leads me to no where. Mm________


A Aadd9/E F# F#7add11/E A Aadd9/E
E---12---------------------------- ------------------------------------------|
B--------------------------------- ------------------------------------------|
G--------------------------------- ------------------------------------------|
D--------------------------------- ------------------------------------------|
A--------------------------------- --------------------7------7--7-----------|
E--------------------------------- --------------------5------5--5-----------|
Wife and kids, house hold pet_______

F# F#7add/E A Aadd9/E F# F#7add11/E
E--------------------------------- ------------------------------------------|
B--------------------------------- ------------------------------------------|
G--------------------------------- -------------------------------3----------|
D--------------------------------- ----------------------------4-------------|
A----4----4----------------------- ----7----7---7-----7/---------------------|
E----2----2----------------------- ----5----5---5-----5/----2--------2-------|
Ar-my green______ was no safe bet____ the bullets scream_

A Aadd9/E F# F#7add11/E A Aadd9/E
E--------------------------------- ------------------------------------------|
B--------------------------------- ------------------------------------------|
G---6----------------------------- ------------------------------------------|
D---7---7------------------------- ---------------7---------7----------------|
A---7---7---------------4-------4- ---------------7---------7----------------|
E---5---0---------------2-------2- ---------------5---------0----------------|

____ to me ____ from some - where. Mm,___________



[Chorus]

Gtr.1
B D E E F# F#5 F# E
Gtr.2
E--------------------------------- ------------------------------------------|
B--------------------------------- ------------------------------------------|
G--------------------------------- ------------------------------------------|
D--------------------------------- ------------------------------------------|
A--9--9--9--9--9--9--9--9-------12 -12-12-12--12-12-12--12--2---4----4-------|
E--7--7--7--7--7--7--7--7-------10 -10-10-10--10-10-10--10--0---2----2-------|
Here they come to snuff the roost - er.________

F# BII F# B D
E--------------------------------- -----------------------------------------|
B--------------------------------- -----------------------------------------|
G--------------------------------- -----------------------------------------|
D----------4---------------------- -----------------------------------------|
A-2-4---4--2-----4--4-------9-9-9- 9-9-9-9-9--12-12-12-12-12-12-12-12-------|
E-0-2---2--------2--2-------7-7-7- 7-7-7-7-7--10-10-10-10-10-10-10-10-------|
Yeah,_________ here come the roost - er,______
Gtr.1
E F#7add11 Aadd9 E F#5 F#7add11 A
E----0-----0--0------------------- -----------------0-0--0-0------5---5--5-5-|
B----0-----0--0------------------- -----------------0-0--0-0------5---5--5-5-|
G-1--3-----3--3-------2----------- -----------------3-3------2----2---2--2-2-|
D-2--4-----4--4-------2---2------- -----------------4-4------2-2--2---2--2-2-|
A-2--4-----4--4-------0---0--4---4 -3(b)--2--0--4---4-4------0-0------0--0-0-|
E-0--2-----2--2--0-0-------------- -------------2---2-2----------------------|
_______ You know_ he ain't_ gon-na die_____________

Gtr.2
E----------0---------------------- --------------------0--------------------|
B----------0--------------0--0--0- 0-------------------0--------------------|
G----------3----------2---2--2--2- 2----2----2---------3----6---6-----------|
D----------4----------2---2--2--2- 2----2----2---------4----7---7------7----|
A--2--4----4----------0---0--0--0- 0----0----0---2-4---4----7-7-7------7----|
E--0--2----2---------------------- --------------0-2---2----5-5-5---0--5--0-|

E F#7add11 Aadd9 E F#5 F#7add11 A5
No,____________ no,______ no,___________ You know_ he ain't gon-na die,___



[Solo]


A Aadd9/E F# F#7add11/E A Aadd9/E F# F#7add11/E
E--------------------------------- ------------------------------------------|
B--------------------------------- -----------------------------^------------|
G--------------------------------- ------------------------2----4------------|(1/2step)(4)
D--------------------------------- -----------------2---4--------------------|
A---2----1----2--2/4---4(b)-4---2- -2/4--1-----------------------------------|
E--------------------------------- ---------2---0----------------------------|

A Aadd9/E F# F#7add11/E A Aadd9/E
E--------------------------------- ----------------------------------------|
B---5-^--------------------------- ----------------------------------------|
G-----4--(4)-2--4--2--4--2--2(b)-- --------4/3----4--4/6---6----4----4/6---|
D--------------------------------- --------x/x----x--x/x---x----x----x/x---|
A--------------------------------- --------2/1----2--2/4---4----2----2/4---|
E--------------------------------- 0---0-----------------------------------|

F# F#7add11/E A Aadd9/E F# F#7add11/E
E--------------------------------- ----------------------------------------|
B----------------------5-2-------- ----------------------------------------|
G-3------------------------4-2---- 4p2-2------2--------4--3--4--4/6---6/9--|
D-x--4--------2------------------- --------------------x--x--x--x/x---x/x--|
A-1--x---------------------------- --------------0--0--2--1--2--2/4---4/7--|
E----2--0------------------------- ----------------0--0--------------------|

A Aadd9/E F# F#7add11/E A Aadd9/E
E--------------------------------- -----------------------------------------|
B--------------------------------- -----------------------------------------|
G-9--(9)/11-11-----11--9-11---- 11/13---11----9--9----9---9-9--9-9-9--9-9-0-|
D-x--(-)/11--x---------x--x---- -x/------x----x--x----------x--x-x-x--x-x-0-|
A-7--(7)/-9--9--9------7--9---- -9/11----9----7--7--7---7---7--7-7-7--7-7---|
E--------------------------------- -----------------------------------------|

A F# A Aadd9/E F# F#7add11/E
Walk-in' tall, ma-chine__gun man._ They spit on me__ in

A Aadd9/E F# F#7add11/E A Aadd9/E
E-------------12---^(1/2)---12---- 12-------------------12-------------------|-(1/2)
B-----------------14----------14-- ---------------------------------10-------|
G--------------------------------- ------------------------------------------|
D--------------------------------- ------------------------------------------|
A--------------------------------- ------------------------------------------|
E--------------------------------- ------------------------------------------|
my home land.__ Glor-i-a_____ sent me pic - tures___ of___ my__ boy___

F# F#7add11/E A Aadd9/E F# F#7add11/E A Aadd9/E
E-------------^(1/2)-------------- -------------------------9-----12-----12-9-|
B------------10------------------- ------------10----12-----------------------|
G---11----------------^(1/2)------ ---------11----11-----11----11-------------|
D---------------------9------9---7 -------------------------------------------|
A--------------------------------- -9-----------------------------------------|
E--------------------------------- -------------------------------------------|

F# F#7add11/E A Aadd9/E F# F#7add11/E
E---12---------------------------- ---------------^(1/2)---------------------|
B--------------------------------- --------------10--------------------------|
G--------------------------------- -----------------------------11-----------|
D--------------------------------- -------------------------0----------------|
A--------------------------------- ------------------------------------------|
E--------------------------------- ------------------------------------------|
My bud-dy's breath-in '___ his dy-in' breath.___ Oh, God, please__

A Aadd9/E F# F#7add11/E A Aadd9/E
E--------------------------------- ----------------------------^(1/2)--------|
B--------------------------------- ----------10---------------10-----12------|
G--------------------------------- ----9--11-----11----11--------------------|
D--------------------------------- ------------------------------------------|
A--------------------------------- ------------------------------------------|
E--------------------------------- ------------------------------------------|
_____________ won't you help me make it through__ Mm,_________



[OUTRO]


A5 F# F#7add11/E A Aadd9/E F# F#7add11/E
E--------------------------------- ------------------------------------------|
B--------------------------------- ------------------------------------------|
G--------------------------------- ------------------------------------------|
D--------------------------------- ------------------------------------------|
A-------7------------------------- ----------4----------4--------------------|
E-------5------------------------- ----------2----------2--------------------|
_____ Oo,_______ oo,______________ oo,__________ oo,______

A Aadd9/E F# F#7add11/E A Aadd9/E F# F#7add11/E A
E--------------------------------- ------------------------------------------|
B--------------------------------- ------------------------------------------|
G--------------------------------- ----------------------------------6-------|
D--------------------------------- ----------------------------------7-------|
A---------7--7-----7------4---4--4 ----------------------------------7-------|
E---------5--5-----0------2---2--2 ----------------------------------5-------|
_____ Oo,_______ oo,______________ oo,__________ oo,______

This took for ever to do so be nice and give good ratings....



************************************

| x Dead note
| (n) Ghost note
| p Pull-off
| / Slide up
| ~ Vibrato

************************************
Tunning: Standard (E A D G B e)
all tuned - Eb Ab Db Gb Bb Eb
Gtr I - 'Jerry Cantrell clean electric'
Gtr II, III - 'Jerry Cantrell dist electric (2 gtrs arr. for 1)'

Intro
Q=72
4/4
Gtr I
Q E E +E E E S S Q E E +E E E S S
||--2--2-0-(0)-0-0-0-0-|-5--5-0-(0)-0-0-0-0-|
||o-2--2-0-(0)-0-0-0-0-|-5--5-0-(0)-0-0-0-0-|
||--3--3-3-(3)-3-3-3-3-|-6--6-6-(6)-6-6-6-6-|
||--4--4-4-(4)-4-4-4-4-|-7--7-7-(7)-7-7-7-7-|
||o-4--4-4-(4)-4-4-4-4-|-7--7-7-(7)-7-7-7-7-|
||--2--2-2-(2)-2-2-2-2-|-5--5-5-(5)-5-5-5-5-|
|-Rhy Fig 1

Q E E +E E E S S Q E E +E E E S S 4x
|-2--2-0-(0)-0-0-0-0-|-5--5-0-(0)-0-0-0-0--||
|-2--2-0-(0)-0-0-0-0-|-5--5-0-(0)-0-0-0-0-o||
|-3--3-3-(3)-3-3-3-3-|-6--6-6-(6)-6-6-6-6--||
|-4--4-4-(4)-4-4-4-4-|-7--7-7-(7)-7-7-7-7--||
|-4--4-4-(4)-4-4-4-4-|-7--7-7-(7)-7-7-7-7-o||
|-2--2-2-(2)-2-2-2-2-|-5--5-5-(5)-5-5-5-5--||
end Rhy Fig 1-|

Verse 1
Gtr I plays Rhy Fig 1 x4
Gtr II,III
~~~~~~~~~~~~~~~~~~~~~~~~~~~~~~~~~~~~~~~~~~~
W +W
|--------------------|----------------------|
|--------------------|----------------------|
|-6------------------|-(6)------------------|
|--------------------|----------------------|
|--------------------|----------------------|
|--------------------|----------------------|



~~~~~~~~~~~~~~~~~~~~~~~~~~~~
+W +W
|----------------------|----------------------|
|----------------------|----------------------|
|-(6)------------------|-(6)------------------|
|----------------------|----------------------|
|----------------------|----------------------|
|----------------------|----------------------|



~~~~~~~~~~~~~~~~~~~~~~~~~~~~~~~~~~~~~~~~~~~~
+W +W
|----------------------|----------------------|
|----------------------|----------------------|
|-(6)------------------|-(6)------------------|
|----------------------|----------------------|
|----------------------|----------------------|
|----------------------|----------------------|



~~~~~~~~~~~~~~~~~~~~~~~~~~~~
+W +W
|----------------------|----------------------|
|----------------------|----------------------|
|-(6)------------------|-(6)------------------|
|----------------------|----------------------|
|----------------------|----------------------|
|----------------------|----------------------|



~~~~~~~~~~~~~~~~~~~~~~~~~~
+W +Q. E +E Q E
|----------------------|----------------------|
|----------------------|----------------------|
|-(6)------------------|-(6)------------------|
|----------------------|----------------------|
|----------------------|--------4-(4)-3---2---|
|----------------------|----------------------|



~~~~~~~~~~~~~~~~~~
E Q E +H W
|---------------------|--------------------|
|---------------------|--------------------|
|---------------------|--------------------|
|-------4-(4)---------|--------------------|
|---------------------|--------------------|
|-5-2-----------------|-5------------------|



~~~~~~~~~~~~~~~~~~~~~~~~~~~~~~~~~~
Q. E +H H. +E S S
|---------------------|-5-------------(5)-----|
|-------7-(7)---------|-------------------5-7-|
|---------------------|-2-------------(2)-----|
|-4-------------------|-------------------2-4-|
|---------------------|-----------------------|
|---------------------|-----------------------|



~~~
S E. +H. +W
|-5----------------------|----------------------||
|---7--(7)---------------|-(7)------------------||
|-2----------------------|----------------------||
|---4--(4)---------------|-(4)------------------||
|------------------------|----------------------||
|------------------------|----------------------||



Chorus 1
Gtr I
Q E E E E E E E E E E E E E S S S E. S S E +Q. S S
|-7--7-7-7-7-7-7-|-10-10-10-10-10-10-10-x-x-|-0-2--2-0-2-(2)---2-0-|
|-7--7-7-7-7-7-7-|-10-10-10-10-10-10-10-x-x-|-0-2--2-0-2-(2)---2-0-|
|-8--8-8-8-8-8-8-|-11-11-11-11-11-11-11-x-x-|-3-3--3-3-3-(3)---3-3-|
|-9--9-9-9-9-9-9-|-12-12-12-12-12-12-12-x-x-|-4-4--4-4-4-(4)---4-4-|
|-9--9-9-9-9-9-9-|-12-12-12-12-12-12-12-x-x-|-4-4--4-4-4-(4)---4-4-|
|-7--7-7-7-7-7-7-|-10-10-10-10-10-10-10-----|-0-2--2-0-2-(2)---2-0-|


E. S S S E +S S E S S S S Q E E E E E E E E E E E E E E
|-2--2-2-2-------2-2-2-2-2-2-|-7--7-7-7-7-7-7-|-10-10-10-10-10-10-10-10-||
|-2--2-2-2-4-(4)-2-2-2-2-2-2-|-7--7-7-7-7-7-7-|-10-10-10-10-10-10-10-10-||
|-3--3-3-3-4-(4)-3-3-3-3-3-3-|-8--8-8-8-8-8-8-|-11-11-11-11-11-11-11-11-||
|-4--4-4-4-4-(4)-4-4-4-4-4-4-|-9--9-9-9-9-9-9-|-12-12-12-12-12-12-12-12-||
|-4--4-4-4-2-(2)-4-4-4-4-4-4-|-9--9-9-9-9-9-9-|-12-12-12-12-12-12-12-12-||
|-2--2-2-2-2-(2)-2-2-2-2-2-2-|-7--7-7-7-7-7-7-|-10-10-10-10-10-10-10-10-||


Gtr II,III
~~~~~~ ~~~~~~~~~~~ ~~~~~~
E Q E +H Q. E +E Q E E Q E +H Q. E +H
||-------0-(0)----|-----------------|------0-(0)----|------5-(5)----||
||o------0-(0)----|-----------------|------0-(0)----|------5-(5)---o||
||-------3-(3)----|-2---------------|------3-(3)----|-2----2-(2)----||
||----4--4-(4)----|-2---------------|---4--4-(4)----|-2----2-(2)----||
||o-2-4--4-(4)----|-0----4-(4)-3--2-|-2-4--4-(4)----|-0----0-(0)---o||
||--0-2--2-(2)----|-----------------|-0-2--2-(2)----|---------------||


Interlude
Gtr II,III
E E E a E +H Q. E +Q a Q E E E E +H +W
||-------------------|------------------|----------------|---------||
||o------------------|------------------|----------------|--------o||
||--4-3-4-4s6-(6)----|-6----4-(4)--4s6--|-3--------------|---------||
||-------------------|------------------|---4-2-2-(2)----|-(2)-----||
||o-2-1-2-2s4-(4)----|-4----2-(2)--2s4--|-1--------------|--------o||
||-------------------|------------------|---2-0-0-(0)----|-(0)-----||
|-Riff A end Riff A-|

Gtr II plays Riff A
Gtr III
E E E a E +Q. S S Q. a E +Q E E E E H. +W
|---------------------|----------------------|---------------|--------||
|---------------------|----------------------|---------------|--------||
|-4-3-4-4s6-(6)---6s9-|-9----9s11-(11)--9-11-|-14-11-9-------|-(9)----||
|---------------------|----------------------|---------------|--------||
|-2-1-2-2s4-(4)---4s7-|-7----7s=9--(9)--7--9-|-12--9-7-------|-(7)----||
|---------------------|----------------------|---------------|--------||


Chorus 2 & 3
Gtrs II,III
$
E E E E E E E E E E E E E E E E S E S S S E +Q E E
|-7-7-7-7-7-7-7-7-|-10-10-10-10-10-10-10-10-|-0-2-2-2-2-------------|
|-7-7-7-7-7-7-7-7-|-10-10-10-10-10-10-10-10-|-0-2-2-2-2-------------|
|-8-8-8-8-8-8-8-8-|-11-11-11-11-11-11-11-11-|-3-3-3-3-3-3-(3)--3-3--|
|-9-9-9-9-9-9-9-9-|-12-12-12-12-12-12-12-12-|-4-4-4-4-4-4-(4)--4-4--|
|-9-9-9-9-9-9-9-9-|-12-12-12-12-12-12-12-12-|-4-4-4-4-4-4-(4)--4-4--|
|-7-7-7-7-7-7-7-7-|-10-10-10-10-10-10-10-10-|-0-2-2-0-2-2-(2)--2-2--|


S E S S S E +S S Q S S E E E E E E E E E E E E E E E E
|-------------------2--2-2-|-7-7-7-7-7-7-7-10-|-10-10-10-10-10-10-10-10-|
|-----------4-(4)---2--2-2-|-7-7-7-7-7-7-7-10-|-10-10-10-10-10-10-10-10-|
|-3-3-3-3-3-4-(4)-3-3--3-3-|-8-8-8-8-8-8-8-11-|-11-11-11-11-11-11-11-11-|
|-4-4-4-4-4-4-(4)-4-4--4-4-|-9-9-9-9-9-9-9-12-|-12-12-12-12-12-12-12-12-|
|-4-4-4-4-4-4-(4)-4-4--4-4-|-9-9-9-9-9-9-9-12-|-12-12-12-12-12-12-12-12-|
|-0-2-2-0-2-2-(2)-2-2--2-2-|-7-7-7-7-7-7-7-10-|-10-10-10-10-10-10-10-10-|


To Coda after repeat
~~~~~~ ~~~~~~~~~~~ ~~~~~~
E Q E +H Q. E +E Q E E Q E +H Q. E +H
||-------0-(0)----|-----------------|------0-(0)----|------5-(5)----||
||o------0-(0)----|-----------------|------0-(0)----|------5-(5)---o||
||-------3-(3)----|-2---------------|------3-(3)----|-2----2-(2)----||
||----4--4-(4)----|-2---------------|---4--4-(4)----|-2----2-(2)----||
||o-2-4--4-(4)----|-0----4-(4)-3--2-|-2-4--4-(4)----|-0----0-(0)---o||
||--0-2--2-(2)----|-----------------|-0-2--2-(2)----|---------------||


Verse 2
Gtr I plays Rhy Fig 1 x4
Gtr II,III
W +H +H +W
|--------------------|----------------------|----------------------|
|--------------------|----------------------|----------------------|
|--------------------|----------------------|----------------------|
|-4------------------|-(4)------(4)---------|-(4)------------------|
|-4------------------|-(4)------(4)---------|-(4)------------------|
|-2------------------|-(2)------(2)---------|-(2)------------------|



+H Q E S S W
|------------------------|------------------------|
|------------------17-14-|-17---------------------|
|------------------------|------------------------|
|-(4)--------------------|------------------------|
|-(4)--------------------|------------------------|
|-(2)--------------------|------------------------|



~~~~~~~~~~~~ ~~~~~~~~~~~~
+W S S Q. +H S S Q. +H
|-----------------------|-14-------------------------|----------------------------|
|-(17)------------------|-------17------(17)---------|-14----14------(14)---------|
|-----------------------|----14----------------------|-14-------------------------|
|-----------------------|----------------------------|----17----------------------|
|-----------------------|----------------------------|----------------------------|
|-----------------------|----------------------------|----------------------------|



~~~~~~~~~~~~~~~~~~~~~~~~~~~
E Q. +H +W
|------------------------------|------------------------|
|-14b14.5----------------------|------------------------|
|-14b14.5----------------------|------------------------|
|---------16------(16)---------|-(16)-------------------|
|------------------------------|------------------------|
|------------------------------|------------------------|



E E E E E E E E
|----------------------------|
|----------------------------|
|-------14-----------14------|
|-14-16----16-14--16----16---|
|----------------------------|
|----------------------------|



~~~~~~~~~~~~
E E E E E E E S S E Q. +H
|-----------------------------|--------------------------|
|-----------------------------|----17------(17)----------|
|-------14----16-----14-16s18-|-18-----------------------|
|-14-16----16-----16----------|--------------------------|
|-----------------------------|--------------------------|
|-----------------------------|--------------------------|



D.S. al Coda
~~~~~~~~~~~~~~~~~~~~~~~~~~~~~~~~~~~~~~~~~~~~~~~~~~
W +W +W
|---------------------|-----------------------|-----------------------||
|-17------------------|-(17)------------------|-(17)------------------||
|---------------------|-----------------------|-----------------------||
|---------------------|-----------------------|-----------------------||
|---------------------|-----------------------|-----------------------||
|---------------------|-----------------------|-----------------------||



Outro
Gtr I plays Rhy Fig 1
&
a a a W +W
|-x------------------------|----------------------|
|---x----------------------|----------------------|
|-----x--------------------|----------------------|
|-------4------------------|-(4)------------------|
|-------4------------------|-(4)------------------|
|-------2------------------|-(2)------------------|



+W E Q. +Q a +E +E
|----------------------|-16-17------(17)---16b17==(17)r(16)-----|
|----------------------|----------------------------------------|
|----------------------|----------------------------------------|
|-(4)------------------|----------------------------------------|
|-(4)------------------|----------------------------------------|
|-(2)------------------|----------------------------------------|


Gtr I plays Rhy Fig 1 (1st 2 bars)
W Q E +E E Q S +S
|-14------------------|--------------------------------------------|
|---------------------|----16b17r(16)-16b17-16b17---16b17r(16)b17==|
|---------------------|--------------------------------------------|
|---------------------|--------------------------------------------|
|---------------------|--------------------------------------------|
|---------------------|--------------------------------------------|



+E Q. +H +Q +H.
|---------------------------|---------------*|
|-(17)-14------(14)---------|-(14)--(14)----*|
|---------------------------|---------------*|
|---------------------------|---------------*|
|---------------------------|---------------*|
|---------------------------|---------------*|
|
| Q E E +E E E S S Q +H.
|---2------2-0--(0)-0-0-0-0-|---5----(5)----*|
|---2------2-0--(0)-0-0-0-0-|---5----(5)----*|
|---3------3-3--(3)-3-3-3-3-|---6----(6)----*|
|---4------4-4--(4)-4-4-4-4-|---7----(7)----*|
|---4------4-4--(4)-4-4-4-4-|---7----(7)----*|
|---2------2-2--(2)-2-2-2-2-|---5----(5)----*|
Song info
Rooster
Alice in Chains
2001
  • Rock
  • Grunge
Alternative tracks
Similar songs
Lake of Fire - Nirvana
Rats - Pearl Jam
Would - Alice in Chains
Why Go - Pearl Jam
Choke - Alice in Chains

Hi! Hope you enjoy backing track experience.
If you want to help us in the development of the project, feel free to donate!