Twilight Of The Thunder God - Amon Amarth
00:00 / 00:00
Tabs and lyrics
Tunning: Standard (E A D G B e)
TWILIGHT OF THE THUNDER GOD
As recorded by Amon Amarth
(From the 2008 Album TWILIGHT OF THE THUNDER GOD)

Words and Music by Amon Amarth
Transcribed by GuitarHeroJP

Gtr I (B E A D F# B) - 'Guitar I'
Gtr II (B E A D F# B) - 'Guitar II'
Gtr III (B E A D F# B) - 'Solo Guitar'


[Intro]
Q=192
4/4
Gtr I
PM| PM| PM--| PM| PM PM
E E E E E E E E E E E E E E E E
B ||---------------------|---------------------|
F#||o-10-----------------|---------------------|
D ||---------11----------|---------------------|
A ||----------------11---|-----12-----11---9---|
E ||o----9-9----9-9----9-|--9-----9-9----9---9-|
B ||---------------------|---------------------|
|
| Gtr II
| W +W
B ||---------------------|---------------------|
F#||o--------------------|---------------------|
D ||---------------------|---------------------|
A ||---4-----------------|-(4)-----------------|
E ||o--4-----------------|-(4)-----------------|
B ||---2-----------------|-(2)-----------------|


PM| PM| PM--| PM| PM PM
E E E E E E E E E E E E E E E E
B |--------------------|--------------------|
F#|-10-----------------|----------10--------|
D |--------11----------|---11----------11---|
A |---------------11---|--------------------|
E |----9-9----9-9----9-|-9----9-9----9----9-|
B |--------------------|--------------------|
|
| W H H
B |--------------------|--------------------|
F#|--------------------|--------------------|
D |--------------------|-2---------7--------|
A |--4-----------------|-2---------7--------|
E |--4-----------------|-0---------5--------|
B |--2-----------------|--------------------|


PM| PM| PM--| PM| PM PM
E E E E E E E E E E E E E E E E
B |-----------------|--------------------|
F#|-9---------------|--------------------|
D |-------9---------|-----9-----11---9---|
A |-------------9---|--------------------|
E |---7-7---7-7---7-|--7----7-7----7---7-|
B |-----------------|--------------------|
|
| W +W
B |-----------------|--------------------|
F#|-----------------|--------------------|
D |-----------------|--------------------|
A |-2---------------|-(2)----------------|
E |-2---------------|-(2)----------------|
B |-0---------------|-(0)----------------|


PM| PM| PM--| PM| PM PM
E E E E E E E E E E E E E E E E
B |-----------------|---------------------||
F#|-9---------------|-----------9--------o||
D |-------9---------|-----9---------9-----||
A |-------------9---|---------------------||
E |---7-7---7-7---7-|--7----7-7---7---7--o||
B |-----------------|---------------------||
|
| W +W
B |-----------------|---------------------||
F#|-----------------|--------------------o||
D |-----------------|---------------------||
A |-2---------------|-(2)-----------------||
E |-2---------------|-(2)----------------o||
B |-0---------------|-(0)-----------------||


[Main Riff]

PM| PM| PM--| PM| PM PM
E E E E E E E E E E E E E E E E
B ||---------------------|-------------------|
F#||o-10-----------------|-------------------|
D ||---------11----------|-------------------|
A ||----------------11---|---12-----11---9---|
E ||o----9-9----9-9----9-|-9----9-9----9---9-|
B ||---------------------|-------------------|
|
| TP TP
| W W
B ||---------------------|-------------------|
F#||o--------------------|-------------------|
D ||---------------------|-------------------|
A ||---------------------|-------------------|
E ||o--------------------|-------------------|
B ||---2-----------------|-2-----------------|


PM| PM| PM--| PM| PM PM
E E E E E E E E E E E E E E E E
B |--------------------|--------------------|
F#|-10-----------------|----------10--------|
D |--------11----------|---11----------11---|
A |---------------11---|--------------------|
E |----9-9----9-9----9-|-9----9-9----9----9-|
B |--------------------|--------------------|
|
| TP TP TP
| W H H
B |--------------------|--------------------|
F#|--------------------|--------------------|
D |--------------------|--------------------|
A |--------------------|--------------------|
E |--------------------|-0---------5--------|
B |--2-----------------|--------------------|


PM| PM| PM--| PM| PM PM PM| PM| PM--| PM| PM PM
E E E E E E E E E E E E E E E E E E E E E E E E E E E E E E E E
B |-----------------|------------------|-----------------|-------------------||
F#|-9---------------|------------------|-9---------------|---------9--------o||
D |-------9---------|---9-----11---9---|-------9---------|---9---------9-----||
A |-------------9---|------------------|-------------9---|-------------------||
E |---7-7---7-7---7-|-7---7-7----7---7-|---7-7---7-7---7-|-7---7-7---7---7--o||
B |-----------------|------------------|-----------------|-------------------||
|
| TP TP TP TP
| W W W W
B |-----------------|------------------|-----------------|-------------------||
F#|-----------------|------------------|-----------------|------------------o||
D |-----------------|------------------|-----------------|-------------------||
A |-----------------|------------------|-----------------|-------------------||
E |-----------------|------------------|-----------------|------------------o||
B |-0---------------|-0----------------|-0---------------|-0-----------------||


[Verse]
$
Gtr I
PM| PM| PM--| PM| PM PM
E E E E E E E E E E E E E E E E
B ||---------------------|-------------------|
F#||o-10-----------------|-------------------|
D ||---------11----------|-------------------|
A ||----------------11---|---12-----11---9---|
E ||o----9-9----9-9----9-|-9----9-9----9---9-|
B ||---------------------|-------------------|
|
| Gtr II
| TP TP
| W W
B ||---------------------|-------------------|
F#||o--------------------|-------------------|
D ||---------------------|-------------------|
A ||---------------------|-------------------|
E ||o--------------------|-------------------|
B ||---2-----------------|-2-----------------|


PM| PM| PM--| PM| PM PM
E E E E E E E E E E E E E E E E
B |--------------------|--------------------|
F#|-10-----------------|----------10--------|
D |--------11----------|---11----------11---|
A |---------------11---|--------------------|
E |----9-9----9-9----9-|-9----9-9----9----9-|
B |--------------------|--------------------|
|
| TP TP TP
| W H H
B |--------------------|--------------------|
F#|--------------------|--------------------|
D |--------------------|--------------------|
A |--------------------|--------------------|
E |--------------------|-0---------5--------|
B |--2-----------------|--------------------|


PM| PM| PM--| PM| PM PM PM| PM| PM--| PM| PM PM
E E E E E E E E E E E E E E E E E E E E E E E E E E E E E E E E
B |-----------------|------------------|-----------------|-------------------||
F#|-9---------------|------------------|-9---------------|---------9--------o||
D |-------9---------|---9-----11---9---|-------9---------|---9---------9-----||
A |-------------9---|------------------|-------------9---|-------------------||
E |---7-7---7-7---7-|-7---7-7----7---7-|---7-7---7-7---7-|-7---7-7---7---7--o||
B |-----------------|------------------|-----------------|-------------------||
|
| TP TP TP TP
| W W W W
B |-----------------|------------------|-----------------|-------------------||
F#|-----------------|------------------|-----------------|------------------o||
D |-----------------|------------------|-----------------|-------------------||
A |-----------------|------------------|-----------------|-------------------||
E |-----------------|------------------|-----------------|------------------o||
B |-0---------------|-0----------------|-0---------------|-0-----------------||


[Chorus]
$$
Gtr I
TP TP TP TPTP TP TP TP TP TPTP TP
H. Q Q E E +H H. Q Q E E +H
B ||-------------|---------------|------------|---------------|
F#||o------------|---------------|------------|---------------|
D ||-------------|---------------|------------|-6-------------|
A ||-------------|----6-7-(7)----|-7-------9--|----9-7-(7)----|
E ||o-9-------7--|-9-------------|------------|---------------|
B ||-------------|---------------|------------|---------------|
|
| Gtr II
| TP TP TP TP
| W W W W
B ||-------------|---------------|------------|---------------|
F#||o------------|---------------|------------|---------------|
D ||-------------|---------------|------------|---------------|
A ||-------------|---------------|------------|---------------|
E ||o------------|---------------|-0----------|-0-------------|
B ||--2----------|-2-------------|------------|---------------|


TP TP TP TPTP TP TP TP TP TPTP TP
H. Q Q E E +H H. Q Q E E +H
B |------------|---------------|-----------|----------------||
F#|------------|---------------|-----------|---------------o||
D |------------|---------------|-----------|----------------||
A |-9-------7--|-9--7-6-(6)----|-----------|----6-----------||
E |------------|---------------|-9-------7-|-9----9-(9)----o||
B |------------|---------------|-----------|----------------||
|
| TP TP TP TP
| W W W W
B |------------|---------------|-----------|----------------||
F#|------------|---------------|-----------|---------------o||
D |------------|---------------|-----------|----------------||
A |------------|---------------|-----------|----------------||
E |------------|---------------|-----------|---------------o||
B |-0----------|-0-------------|-2---------|-2--------------||


To Dbl. Coda
Gtrs I, II
Q. Q. Q +E Q. Q Q Q. Q. Q +E Q. Q Q
B |--------------|----------------|--------------|---------------|
F#|--------------|----------------|--------------|---------------|
D |-2---------6--|-(6)-7----6--4--|-2---------6--|-(6)-7----6--4-|
A |-2----4----6--|-(6)-7----6--4--|-2----4----6--|-(6)-7----6--4-|
E |-0----4----4--|-(4)-5----4--2--|-0----4----4--|-(4)-5----4--2-|
B |------2-------|----------------|------2-------|---------------|


[Bridge]
Gtrs I, II
PM----|
W +W H H H E E E E
|----------|------------|------------|---------------|
|----------|------------|------------|---------------|
|----------|------------|------------|---------------|
|-4--------|-(4)--------|-4----------|---------------|
|-4--------|-(4)--------|-4----------|------4-4---4--|
|-2--------|-(2)--------|-2----12S===|=0----2-2---2--|


[Interlude]

PM--------| PM--------| PM--------| PM| PM|
E E E E E E E E E E E E E E E E E E E E E E E E E E E E E E E E 4x
B ||------------------|-----------------|-----------------|------------------||
F#||o-----------------|-----------------|-----------------|-----------------o||
D ||--2---------------|-2---------------|-----------------|------------------||
A ||----4-------------|---5-------------|-2-4-------------|-5-4-----2-4------||
E ||o-----------------|-----------------|-----------------|-----------------o||
B ||------2-2-2-2-2-2-|-----2-2-2-2-2-2-|-----2-2-2-2-2-2-|-----2-2-----2-2--||


E E +H. E E +H. E E +H. E Q. E Q.
B ||---------------|--------------|--------------|--------------||
F#||o--------------|--------------|--------------|-------------o||
D ||---------------|--------------|--------------|--------------||
A ||--7-4-(4)------|-7-5-(5)------|-2-4-(4)------|-5-4----2-4---||
E ||o-7-4-(4)------|-7-5-(5)------|-2-4-(4)------|-5-4----2-4--o||
B ||--5-2-(2)------|-5-3-(3)------|-0-2-(2)------|-3-2----0-2---||


Gtr I
E E +H. E E +H. E E +H. E Q. E Q. 4x
B ||------------------|-----------------|----------------|-----------------||
F#||o-----------------|-----------------|----------------|----------------o||
D ||------------------|-----------------|----------------|-----------------||
A ||---7--4--(4)------|--7--5--(5)------|-2--4--(4)------|--5--4----2--4---||
E ||o--7--4--(4)------|--7--5--(5)------|-2--4--(4)------|--5--4----2--4--o||
B ||---5--2--(2)------|--5--3--(3)------|-0--2--(2)------|--3--2----0--2---||
|
| Gtr II
| E E +H. E E +H. E E +H. E Q. E Q. 4x
B ||------------------|-----------------|----------------|-----------------||
F#||o-----------------|-----------------|----------------|----------------o||
D ||--14-11-(11)------|-14-12-(12)------|-9-11-(11)------|-12-11----9-11---||
A ||------------------|-----------------|----------------|-----------------||
E ||o-12--9--(9)------|-12-10-(10)------|-7--9--(9)------|-10--9----7--9--o||
B ||------------------|-----------------|----------------|-----------------||


[Pre-Solo]
Gtr I
PM| PM| PM--| PM| PM PM
E E E E E E E E E E E E E E E E
B |---------------------|--------------------|
F#|-10------------------|--------------------|
D |---------11----------|--------------------|
A |----------------11---|----12-----11---9---|
E |----9-9-----9-9----9-|-9-----9-9----9---9-|
B |---------------------|--------------------|
|
| Gtr II
| PM---------------------------------------
| Q H. H. Q
B |---------------------|--------------------|
F#|---------------------|--------------------|
D |---------------------|--------------------|
A |--4------------------|----------------4---|
E |--4------------------|----------------4---|
B |--2------------------|----------------2---|


PM| PM| PM--| PM| PM PM
E E E E E E E E E E E E E E E E
B |---------------------|----------------------|
F#|-10------------------|----------10----------|
D |---------11----------|---11----------11-----|
A |----------------11---|----------------------|
E |----9-9-----9-9----9-|-9----9-9----9----9---|
B |---------------------|----------------------|
|
|------| PM--|
| Q H. H Q Q
|---------------------|----------------------|
|---------------------|----------------------|
|---------------------|----------------2---7-|
|--4------------------|----------------2---7-|
|--4------------------|----------------0---5-|
|--2------------------|----------------------|


PM-| PM| PM--| PM| PM PM
E E E E E E E E E E E E E E E E
B |------------------|-------------------|
F#|-9----------------|-------------------|
D |--------9---------|----9-----11---9---|
A |--------------9---|-------------------|
E |---7--7---7-7---7-|-7----7-7----7---7-|
B |------------------|-------------------|
|
| PM PM
| Q H. H. Q
B |------------------|-------------------|
F#|------------------|-------------------|
D |------------------|-------------------|
A |-2----------------|---------------2---|
E |-2----------------|---------------2---|
B |-0----------------|---------------0---|
|
| Gtr III
B |------------------|-------------------|
F#|------------------|-------------------|
D |------------------|-------------------|
A |------------------|-------------------|
E |------------------|-------------------|
B |------------------|-------------------|


PM| PM| PM
E E E E E E E E
B |-----------------|------------------------|
F#|-9---------------|------------------------|
D |-------9---------|------------------------|
A |-------------9---|------------------------|
E |---7-7---7-7---7-|------------------------|
B |-----------------|------------------------|
|
| W
B |-----------------|------------------------|
F#|-----------------|------------------------|
D |-----------------|------------------------|
A |-2---------------|------------------------|
E |-2---------------|------------------------|
B |-0---------------|------------------------|
|
| |--3--| |--3--|
| E E E E E E H
|-----------------|-21-17----------17-19---|
|-----------------|-------17----17---------|
|-----------------|----------18------------|
|-----------------|------------------------|
|-----------------|------------------------|
|-----------------|------------------------|


[Solo]
Gtr III
S S S S S S S S S S S S S S S S
B |---------------------------------------------|
F#|---------------------------------------------|
D |---------------------------------------------|
A |--------------------11-12-11-9-12-11-9-------|
E |----9-11-12-9-11-12--------------------12-11-|
B |-12------------------------------------------|
|
| Gtrs I, II
| TP
| W
B |---------------------------------------------|
F#|---------------------------------------------|
D |---------------------------------------------|
A |---------------------------------------------|
E |---------------------------------------------|
B |--2------------------------------------------|


S S S S S S S S S S S S S S S S
B |---------------------------------------------|
F#|---------------------------------------------|
D |--------------------9-------9-11----9-11-13--|
A |----9-11-12-9-11-12---11-12------12----------|
E |-12------------------------------------------|
B |---------------------------------------------|
|
| TP
| W
B |---------------------------------------------|
F#|---------------------------------------------|
D |---------------------------------------------|
A |---------------------------------------------|
E |---------------------------------------------|
B |--2------------------------------------------|


S S S S S S S S S S S S S S S S
B |---------------------------------------------12-|
F#|---------------------12----12-14-15-12-14-15----|
D |-9-11-13-14-11-13-14----14----------------------|
A |------------------------------------------------|
E |------------------------------------------------|
B |------------------------------------------------|
|
| TP
| W
B |------------------------------------------------|
F#|------------------------------------------------|
D |------------------------------------------------|
A |------------------------------------------------|
E |-0----------------------------------------------|
B |------------------------------------------------|


S S S S S S S S S S S S S S S S
B |-13----------------14-16----14-16-17-22-19-21-22--|
F#|----14-15-17-15-17-------17-----------------------|
D |--------------------------------------------------|
A |--------------------------------------------------|
E |--------------------------------------------------|
B |--------------------------------------------------|
|
| TP
| W
B |--------------------------------------------------|
F#|--------------------------------------------------|
D |--------------------------------------------------|
A |--------------------------------------------------|
E |--0-----------------------------------------------|
B |--------------------------------------------------|


|--3--| |--3--| |--3--| |--3--|
H +H E E E E E E E E E E E E
|-24b26=====(24)r===|=24-22-21----22-21-------------------|
|-------------------|----------24-------24-19-22-21-24-22-|
|-------------------|-------------------------------------|
|-------------------|-------------------------------------|
|-------------------|-------------------------------------|
|-------------------|-------------------------------------|
|
| TP TP
| W W
B |-------------------|-------------------------------------|
F#|-------------------|-------------------------------------|
D |-------------------|-------------------------------------|
A |-------------------|-------------------------------------|
E |-------------------|-------------------------------------|
B |--0----------------|--0----------------------------------|


|--3--|
H. Q S S S S E E E S S S S S S S S
|--------------|-22p21h22p21----------------------------------|
|-19-------17--|-------------24-22-21-22-21-19-17S24-22-21-19-|
|--------------|----------------------------------------------|
|--------------|----------------------------------------------|
|--------------|----------------------------------------------|
|--------------|----------------------------------------------|
|
| TP TP TP TP TP
| H. Q Q Q H
B |--------------|----------------------------------------------|
F#|--------------|----------------------------------------------|
D |--------------|----------------------------------------------|
A |--------------|----------------------------------------------|
E |--------------|----------------------------------------------|
B |--2--------0--|--2-----4-----2-------------------------------|


S S S S S S S S S S S S S S S S
B |-------------------------------------------------|
F#|-21-19-17----19-17-15----17-15-14----15-14-12----|
D |----------19----------18----------16----------14-|
A |-------------------------------------------------|
E |-------------------------------------------------|
B |-------------------------------------------------|
|
| TP
| W
B |-------------------------------------------------|
F#|-------------------------------------------------|
D |-------------------------------------------------|
A |-------------------------------------------------|
E |-------------------------------------------------|
B |--2----------------------------------------------|


S S S S S S S S S S S S S S S S
B |--------------------------------------------------|
F#|-14-12-10-----------------------------------------|
D |----------13-16-14-13----14-13-------13-----------|
A |----------------------16-------16-14----16-14-12--|
E |--------------------------------------------------|
B |--------------------------------------------------|
|
| TP
| W
B |--------------------------------------------------|
F#|--------------------------------------------------|
D |--------------------------------------------------|
A |--------------------------------------------------|
E |--------------------------------------------------|
B |--2-----------------------------------------------|


S S S S S S S S S S S S S S S S
B |----------------------------------------------|
F#|----------------------------------------------|
D |-------------------------------------------13-|
A |-------------------------11-11-11-16-16-16----|
E |-9-9-9-11-11-11-12-12-12----------------------|
B |----------------------------------------------|
|
| TP
| W
B |----------------------------------------------|
F#|----------------------------------------------|
D |----------------------------------------------|
A |----------------------------------------------|
E |-0--------------------------------------------|
B |----------------------------------------------|


S S S S S S S S H
B |----------------------------------|
F#|-------------------------19b24----|
D |-13-13-14-14-14-18-18-18----------|
A |----------------------------------|
E |----------------------------------|
B |----------------------------------|
|
| TP
| W
B |----------------------------------|
F#|----------------------------------|
D |----------------------------------|
A |----------------------------------|
E |--0-------------------------------|
B |----------------------------------|


S S S S S S S S S S S S S S S S
B |-24p21----------------21-24p21----------------21-|
F#|-------22----------22----------22----------22----|
D |----------23----23----------------23----23-------|
A |-------------23----------------------23----------|
E |-------------------------------------------------|
B |-------------------------------------------------|
|
| TP
| W
B |-------------------------------------------------|
F#|-------------------------------------------------|
D |-------------------------------------------------|
A |-------------------------------------------------|
E |-------------------------------------------------|
B |--0----------------------------------------------|


S S S S S S S S S S S S S S S S
B |-24-21----21-24b26-21----21-24-21----21----21----21--|
F#|-------22-------------22----------21----19----21-----|
D |-----------------------------------------------------|
A |-----------------------------------------------------|
E |-----------------------------------------------------|
B |-----------------------------------------------------|
|
| TP
| W
B |-----------------------------------------------------|
F#|-----------------------------------------------------|
D |-----------------------------------------------------|
A |-----------------------------------------------------|
E |-----------------------------------------------------|
B |--0--------------------------------------------------|


D.S.S.
\1
|----3-----|
S S E +E +E Q Q Q W
|-24b26-21---------------------24b26-21------|-14-----------|
|----------19b22-(19)-(19)pb21r===========22-|-14-----------|
|--------------------------------------------|--------------|
|--------------------------------------------|--------------|
|--------------------------------------------|--------------|
|--------------------------------------------|--------------|
|
| TP TP TP TP TP
| H. Q Q Q H
B |--------------------------------------------|--------------|
F#|--------------------------------------------|--------------|
D |--------------------------------------------|--------------|
A |--------------------------------------------|--------------|
E |--------------------------------------------|--------------|
B |--2------------------------------------0----|--2---4--2----|


[Outro]

&&
W
B |----------|-|
F#|----------|-|
D |----------|-|
A |-4--------|-|
E |-4--------|-|
B |-2--------|-|





************************************

| (n) Ghost note
| h Hammer-on
| p Pull-off
| b Bend

Duration Legend
---------------
W - whole; H - half; Q - quarter; E - 8th; S - 16th; T - 32nd; X - 64th; a - acciaccatura
+ - note tied to previous; . - note dotted; .. - note double dotted
Uncapitalized letters represent notes that are staccato (1/2 duration)
Irregular groupings are notated above the duration line
Duration letters will always appear directly above the note/fret number it represents the
duration for. Duration letters with no fret number below them represent rests. Multi-
bar rests are notated in the form Wxn, where n is the number of bars to rest for. Low
melody durations appear below the staff

Misc Legend
-----------
| - bar
|| - double bar
||o - repeat start
o|| - repeat end
*| - double bar (ending)
: - bar (freetime)
$ - Segno
& - Coda
Tempo markers - = BPM(8/16=s8/s16), where s8 = swing 8ths, s16 = swing 16ths

************************************
Song info
Twilight Of The Thunder God
Amon Amarth
2001
  • Rock
  • Melodic Death Metal
Similar songs
Guardians Of Asgaard - Amon Amarth
Free Will Sacrifice - Amon Amarth
Are You Dead Yet - Children of Bodom
Cry Of The Blackbirds - Amon Amarth

Hi! Hope you enjoy backing track experience.
If you want to help us in the development of the project, feel free to donate!