Got The Time - Anthrax
00:00 / 00:00
Tabs and lyrics
Tunning: Standard (E A D G B e)
Got The Time (Joe Jackson)
Anthrax
"Persistence of Time" album

Bass Intro

||-----------------------------------||
||*---------------------------------*||
||*---------5-5-5-5-7-7-7-7---------*||
||--7-7-7-7-----------------5-5-5-5--||


Rhythm fig. 1. 1,2,3 4.
e|--||----------------------------------||---------------------------------|
B|--||----------------------------------||---------------------------------|
G|9-||*--4---4---------9-9-9-9---------*||---------------------------------|
D|9-||*--4---4-7-7-7-7-9-9-9-9---------*||-7-----7-----7-----7-------7---7-|
A|7\||---2---2-5-5-5-5-7-7-7-7-7-7-7-7--||-7---9-7---9-7---9-7-----9-7---7-|
E|--||-------------------------5-5-5-5--||-----9-----9-----9-------9-------|


End Rh. fig. 1
e|----|----------|
B|----|----------|
G|----|----------|
D|9---|----------|
A|9---|----------|
E|7---|-----x----|


[Verse]

e|---------------------------------|-----------------------------------|
B|---------------------------------|-----------------------------------|
G|---------------------------------|-----------------------------------|
D|-9-------------------------------|-----------------------------------|
A|-9-------------------------------|-----------------------------------|
E|-7-------------------------------|-----------------------------------|

Wake up, got another day to get through now. Got another man to see


e|---------------------------------|--------------------------------|
B|---------------------------------|--------------------------------|
G|---------------------------------|--------------------------------|
D|-9-------------------------------|9-------------------------------|
A|-9-------------------------------|9-------------------------------|
E|-7---8-8-7-7-8-8-7-7-8-8-7-7-8-8-|7---8-8-7-7-8-8-7-7-8-8-7-7-8-8-|

Gotta call him on the telephone ay-o gotta find a piece of paper ....


triplet feel
e|---------------------------------|---------------------------------|
B|---------------------------------|---------------------------------|
G|---------------------------------|-7-----7-----7---9---------------|
D|-5-----5-----5-----4-----4-----4-|-7-----7-----7---9---------------|
A|-5-----5-----5-----4-----4-----4-|-5-----5-----5---7---------------|
E|-3-----3-----3-----2-----2-----2-|---------------------------------|
No such thing as tomorrow all we want two three go!

Chorus is played w/Rh. fig. 1.

Solo (played over Rh. fig 1)

------------------3 times ---------------------------------------------------||
||--7-7---7-10-10---10-12-12---12-5-5---5-|5-----5-----5-------5-------5-5----||
||--7-7---7-10-10---10-12-12---12-5-5---5-|5---7-5---7-5-----7-5-----7-5-5----||
||*---------------------------------------|----6-----6-------6-------6-----*--||
||*---------------------------------------|--------------------------------*--||
||----------------------------------------|-----------------------------------||
||----------------------------------------|-----------------------------------||

Bass Solo It's hard to see from tab - chords are played on the upbeat
x4
e|---|---- ----|-||---------------------------||
B|---|---- ----|-||---------------------------||
G|---|---- ----|-||*-----4-----4-----4-----4-*||
D|-9-|---- ----|-||*-----4-----4-----4-----4-*||
A|-9-|---- ----|-||---------------------------||
E|-7-|---- ----|-||---------------------------||

1,2,3.
e||-------------------------------------------------||
B||-------------------------------------------------||
G||*-------4-4---------4-4---------4-4---------4-4-*||
D||*-------4-4---------4-4---------4-4---------4-4-*||
A||-------------------------------------------------||
E||-------------------------------------------------||


4
e|----------------------------------------|---------------------------------|
B|----------------------------------------|---------------------------------|
G|--4-4---------4-4---------4-4-----------|---------------------------------|
D|--4-4---------4-4---------4-4-----------|---------------------------------|
A|--------------------------------------2-|-2-----2-2-----2-2-----2-2-----2-|
E|----------------------------------------|---------------------------------|

e|--------------------------------|
B|--------------------------------|
G|--------------------------------|
D|--------------------------------|
A|2-----2-2-----2-2-----2-2-----1-|
E|--------------------------------|

No Such thing...
[Chorus]
Tunning: Standard (E A D G B e)
Band: Anthrax
Song: Got The Time
Tunig: Standard

[Riff 1] x3 Last time
e|---------------------|----------------------|----------|
B|---------------------|----------------------|----------|
G|---------------------|----------------------|----------|
D|-------------8-8-----|----------------------|----------|
A|--8-8--4444--6-6-6-6-|--6---6---6---6---6-6-|--8----8\-|
E|--6-6------------4-4-|--4-4-4-4-4-4-4-4-4-4-|--6----6\-|
**** * * * *

[Riff 2] 1st 2nd ending
e|-----------------------------------|-----|-------------------|
B|-----------------------------------|-----|-------------------|
G|-----------------------------------|-----|-------------------|
D|-----------------------------------|-----|--------------6--8-|
A|-8----------------8----------------|--8\-|--8--6--4--3--4--6-|
E|-6-66666666666666-6-66666666666666-|--6\-|--6--4--2--1-------|
************** ************** * *

Play Riff 1 "Time, got the time..."
Play Riff 2
Play Riff 1 "Time, got the time..."

[Solo Rhythm] x3 Last time
e|---------------------|----------------------|----------|
B|---------------------|----------------------|----------|
G|---------------------|----------------------|----------|
D|---------------------|----------------------|----------|
A|------4444-6666------|--6---6---6---6---6-6-|--8----8\-|
E|-6666-----------4444-|--4-4-4-4-4-4-4-4-4-4-|--6----6\-|
**** **** **** **** * * * *

[Solo] x2
e|-6-6-6-6--9-9-9-9--11-11-11-11--4-4-4-4--4--4--4--4--4-4-|
B|-6-6-6-6--9-9-9-9--11-11-11-11--4-4-4-4--4--4--4--4--4-4-|
G|---------------------------------------------------------|
D|---------------------------------------------------------|
A|---------------------------------------------------------|
E|---------------------------------------------------------|

[End Solo]
During bass solo, play this
e|-----------------------|
B|-----------------------|
G|-----------------------|
D|-----------------------|
A|-8-8-8-8-8-8-8-8-------|
E|-6-6-6-6-6-6-6-6-.....-|
* * * *

When drums start, play this
e|-----------------------|
B|-----------------------|
G|-----------------------|
D|-----------------------|
A|--8-8--8-8--8-8--------|
E|--6-6--6-6--6-6-......-|

Towards end, play this
e|-----------------------|
B|-----------------------|
G|-----------------------|
D|-----------------------|
A|--8-8--8-8--8-8--------|
E|--6-6--6-6--6-6-......-|
* * * * * *

Then the lead in to the chorus
e|------------------|
B|------------------|
G|------------------|
D|-------------6--8-|
A|-8--6--4--3--4--6-|
E|-6--4--2--1-------|
* *

[Ending] x3
e|---------------------|----------------------|
B|---------------------|----------------------|
G|---------------------|----------------------|
D|-------------8-8-----|----------------------|
A|--8-8--4444--6-6-6-6-|--6---6---6---6---6-6-|
E|--6-6------------4-4-|--4-4-4-4-4-4-4-4-4-4-|
**** * * * *

"Time, got the time..."
Last time
e|---------------|
B|---------------|
G|---------------| end
D|-------------8-|
A|--8-8--4444--6-|
E|--6-6----------|
****
"...head."

************************************

| \ Slide down

************************************
Song info
Got The Time
Anthrax
2001
  • Hip Hop
  • Rock
  • Funk Metal
  • Hard Rock
Alternative tracks
Similar songs
Runnin Wild - Airbourne
Return to Fantasy - Uriah Heep
Among The Living - Anthrax
Another Rainy Night - Queensrÿche

Hi! Hope you enjoy backing track experience.
If you want to help us in the development of the project, feel free to donate!