Roller - April Wine
00:00 / 00:00
Tabs and lyrics
Tunning: Standard (E A D G B e)
ROLLER
As recorded by April Wine
(From the 1978 Album FIRST GLANCE)




Words and Music by Myles Goodwyn



E5
0 2 2 x x x A5
5 7 7 x x x E5VII
x 7 9 9 x x D5
x 5 7 7 x x
F#5
2 4 4 x x x G5
3 5 5 x x x G#5
4 6 6 x x x Bb5
6 8 8 x x x
B5
7 9 9 x x x


Gtr I (E A D G B E) - 'Distortion Guitar'
Gtr II (E A D G B E) - 'Overdriven Guitar'
Gtr III (E A D G B E) - 'Overdriven Guitar'
Gtr IV (E A D G B E) - 'Overdriven Guitar'


Intro
Q=207
E5
12/8
Gtr I
W. Q Q W W.
|
/

Gtr II
|--3--| |-3-| |-3-|
W H Q E E E E E Q E E E E E Q E E E E E E E E E E E
|----------------|-----------------------------|------------------------------|
|----------------|-----------------------------|------------------------------|
|----------------|-----------------------------|--------------------2---------|
|----------------|----------------2--2---------|-2---2---------0-/4--------2--|
|----------------|------4p2p==0--------4p2p0---|-------4p2p0----------0-/4----|
|----------------|-0--0---------4------------4-|-------------4----------------|


D5 A5
W. H. Q. Q.
| |
/ /

|-3-| |-3-| |-3-|
Q E E E E E Q E E E E E Q E E E E E Q. Q.
|----------------------------|-------------------------|
|----------------------------|---------------3---------|
|----------------------------|---------------2----2----|
|---------------2--2---------|-2---2---------0----2----|
|-------4p2p0--------4p2p0---|-------4p2p0--------0----|
|-0---0-------4------------4-|-------------4-----------|


W.
|-3-| |-3-|
Q E E E E E Q E E E E E
|-----------------------------|
|-----------------------------|
|-----------------------------|
|---------------2--2----------|
|-------4p2p0--------4p2p0----|
|-0---0-------4------------4--|


W. W.
|-3-| |-3-|
Q E E E E E E E E E E E Q E E E E E H.
|-----------------------------|-----------------------|
|-----------------------------|-----------------------|
|--------------------2--------|-----------------------|
|-2---2---------0-/4--------2-|---------------2-------|
|-------4p2p0----------0-/4---|-------4p2p0-----------|
|-------------4---------------|-0---0-------4---------|


E5VII
W. Q E Q E Q E Q E
| | | | |
/ / / / /

+W. Q E Q E Q E Q E
|----------------|----------------------|
|----------------|----------------------|
|----------------|-9--9----9----9----9--|
|-(2)------------|-9--9----9----9----9--|
|----------------|-7--7----7----7----7--|
|----------------|----------------------|


+Q E Q E Q E Q E +Q E Q E Q E Q E +Q E Q E Q E Q E
| | | | | | | | | | | | | | |
/ / / / / / / / / / / / / / /

+Q E Q E Q E Q E +Q E Q E Q E Q E +Q E Q E Q E Q E
|-----------------------|-----------------------|------------------------||
|-----------------------|-----------------------|------------------------||
|-(9)--9----9----9----9-|-(9)--9----9----9----9-|-(9)--9----9----9----9--||
|-(9)--9----9----9----9-|-(9)--9----9----9----9-|-(9)--9----9----9----9--||
|-(7)--7----7----7----7-|-(7)--7----7----7----7-|-(7)--7----7----7----7--||
|-----------------------|-----------------------|------------------------||


Verse 1
E5
+Q e e E e e E e e E e
| | | | | | | |
/ / / / / / / /

PM| PM| PM| PM-
+Q E E E E E E E E E E
|---------------------------|
|---------------------------|
|-(9)\----------------------|
|-(9)\----------------------|
|-(7)\--2-2---2-2---2-2---2-|
|-------0-0---0-0---0-0---0-|


e E e e E e e E e e E e e E e e E e e E e e E e
| | | | | | | | | | | | | | | |
/ / / / / / / / / / / / / / / /

-| PM| PM| PM| PM--| PM| PM------| PM
E E E E E E E E E E E E E E E E E E E E E E E E
|-------------------------|--------------------------|
|-------------------------|--------------------------|
|-------------------------|--------------------------|
|-------------------------|--------------------------|
|-2---2-2---2-2---2-2---2-|-2---2-2---2-2---2-2---2--|
|-0---0-0---0-0---0-0---0-|-0---0-0---0-0---0-0---0--|


e E e e E e e E e e E e e E e e E e e E e e E e e E e e E e e E e e E e
| | | | | | | | | | | | | | | | | | | | | | | |
/ / / / / / / / / / / / / / / / / / / / / / / /

PM PM| PM--------------------------------------------------------------|
E E E E E E E E E E E E E E E E E E E E E E E E E E E E E E E E E E E E
|-------------------------|-------------------------|--------------------------|
|-------------------------|-------------------------|--------------------------|
|-------------------------|-------------------------|--------------------------|
|-------------------------|-------------------------|--------------------------|
|-2---2-2---2-2---2-2---2-|-2---2-2---2-2---2-2---2-|-2---2-2---2-2---2-2---2--|
|-0---0-0---0-0---0-0---0-|-0---0-0---0-0---0-0---0-|-0---0-0---0-0---0-0---0--|


e E e e E e e E e e E e e E e e E e e E e e E e e E e e E e e E e e E e
| | | | | | | | | | | | | | | | | | | | | | | |
/ / / / / / / / / / / / / / / / / / / / / / / /

PM------------------------------------------------------------------------|
E E E E E E E E E E E E E E E E E E E E E E E E E E E E E E E E E E E E
|-------------------------|-------------------------|--------------------------|
|-------------------------|-------------------------|--------------------------|
|-------------------------|-------------------------|--------------------------|
|-------------------------|-------------------------|--------------------------|
|-2---2-2---2-2---2-2---2-|-2---2-2---2-2---2-2---2-|-2---2-2---2-2---2-2---2--|
|-0---0-0---0-0---0-0---0-|-0---0-0---0-0---0-0---0-|-0---0-0---0-0---0-0---0--|


e E e e E e e E e e E e e E e e E e e E e e E e e E e e E e e E e e E e
| | | | | | | | | | | | | | | | | | | | | | | |
/ / / / / / / / / / / / / / / / / / / / / / / /

PM------------------------------------------------------------------------|
E E E E E E E E E E E E E E E E E E E E E E E E E E E E E E E E E E E E
|-------------------------|-------------------------|--------------------------|
|-------------------------|-------------------------|--------------------------|
|-------------------------|-------------------------|--------------------------|
|-------------------------|-------------------------|--------------------------|
|-2---2-2---2-2---2-2---2-|-2---2-2---2-2---2-2---2-|-2---2-2---2-2---2-2---2--|
|-0---0-0---0-0---0-0---0-|-0---0-0---0-0---0-0---0-|-0---0-0---0-0---0-0---0--|


e E e e E e e E e e E e e E e e E e e E e e E e e E e e E e e E e e E e
| | | | | | | | | | | | | | | | | | | | | | | |
/ / / / / / / / / / / / / / / / / / / / / / / /

PM------------------------------------------------------------------------|
E E E E E E E E E E E E E E E E E E E E E E E E E E E E E E E E E E E E
|-------------------------|-------------------------|--------------------------|
|-------------------------|-------------------------|--------------------------|
|-------------------------|-------------------------|--------------------------|
|-------------------------|-------------------------|--------------------------|
|-2---2-2---2-2---2-2---2-|-2---2-2---2-2---2-2---2-|-2---2-2---2-2---2-2---2--|
|-0---0-0---0-0---0-0---0-|-0---0-0---0-0---0-0---0-|-0---0-0---0-0---0-0---0--|


Interlude
D5 A5 E5VII
E E E E E E E E E E E E Q. Q E Q E Q E
| | | | | | | | | | | | | | | | | |
/ / / / / / / / / / / / o / / / / /

E E E E E E E E E E E E Q. Q. E E E Q.
|-------------------------|------------------------|
|-3-3-3-3-3-3-------------|------------------------|
|-2-2-2-2-2-2-2-2-2-2-2-2-|------------------------|
|-0-0-0-0-0-0-2-2-2-2-2-2-|------2-----2p0---2-----|
|-------------0-0-0-0-0-0-|----------------2-------|
|-------------------------|-0----------------------|


Q E Q E Q E Q E
| | | | | |
/ / / / / /

Q. Q E E E E Q.
|----------------------------|
|----------------------------|
|----------------------------|
|-------2--2-2p0-------------|
|----------------2-----------|
|-0----------------3b4.5-----|


E5VII
Q E Q E Q E Q E E E E Q E Q E Q E
| | | | | | | | | | | | | |
/ / / / / / x x x / / / / /

Q. Q. E E E Q E E E E E E Q +H E
|------------------------|--------------------------|
|------------------------|--------------------------|
|------------------------|------------------------9-|
|-------2-----2p0---2--2-|-2p0h2-0h2-2---(2)------9-|
|-----------------2------|------------------------7-|
|-0----------------------|--------------------------|


Verse 2
E5
+Q. e E e e E e e E e
| | | | | | |
/ / / / / / /

+Q. Q. H.
|-----------------------------|
|-----------------------------|
|-(9)\------------------------|
|-(9)\------------------------|
|-(7)\------------------------|
|-----------------------------|


e E e e E e e E e e E e
| | | | | | | |
/ / / / / / / /

Q. E E H +Q.
|-----------------------------------|
|--------14p12----------------------|
|--------------12b13-------(12)-----|
|-----------------------------------|
|-----------------------------------|
|-----------------------------------|


e E e e E e e E e e E e e E e e E e e E e e E e
| | | | | | | | | | | | | | | |
/ / / / / / / / / / / / / / / /

H. H. H. H.
|---------------------------|----------------------------|
|---------------------------|----------------------------|
|---------------------------|----------------------------|
|---------------------------|----------------------------|
|---------------------------|----------------------------|
|---------------------------|----------------------------|


e E e e E e e E e e E e
| | | | | | | |
/ / / / / / / /

H. H.
|---------------------------|
|---------------------------|
|---------------------------|
|---------------------------|
|---------------------------|
|---------------------------|


e E e e E e e E e e E e e Q Q. H.
| | | | | | | | |
/ / / / / / / / /

Q E Q H +Q. H. H.
|---------------------------------------|------------------|
|-----(12)-15b17---15b17-------(15)-----|------------------|
|---------------------------------------|------------------|
|---------------------------------------|------------------|
|---------------------------------------|------------------|
|---------------------------------------|------------------|


Chorus
D5 A5 E5VII D5 A5
E E E E E E E E E E E E Q e Q E Q e Q E Q e Q e Q. Q.
| | | | | | | | | | | | | | | | | | | | | | | | |
/ / / / / / / / / / / / o / / / / / / o / / / / /

PM PM PM PM
E E E E E E E E E E E E Q E Q E Q E Q E Q E Q E Q. Q.
|-------------------------|---------------------|----------------------|
|-3-3-3-3-3-3-------------|---------------------|----------------------|
|-2-2-2-2-2-2-2-2-2-2-2-2-|----9-9--9----9-9--9-|----9-9--9-7----------|
|-0-0-0-0-0-0-2-2-2-2-2-2-|----9-9--9----9-9--9-|----9-9--9-7----7-----|
|-------------0-0-0-0-0-0-|----7-7--7----7-7--7-|----7-7--7-5----7-----|
|-------------------------|-0-------------------|-0--------------5-----|


E5VII D5 A5 E5VII
Q e Q E Q e Q E Q e Q e Q. Q. Q e Q E Q e Q E
| | | | | | | | | | | | | | | | | | | |
o / / / / / / o / / / / / o / / / / / /

PM PM PM PM PM PM
Q E Q E Q E Q E Q E Q E Q. Q. Q E Q E Q E Q E
|---------------------|---------------------|----------------------|
|---------------------|---------------------|----------------------|
|----9-9--9----9-9--9-|----9-9--9-7---------|----9-9--9----9-9--9--|
|----9-9--9----9-9--9-|----9-9--9-7----7----|----9-9--9----9-9--9--|
|----7-7--7----7-7--7-|----7-7--7-5----7----|----7-7--7----7-7--7--|
|-0-------------------|-0--------------5----|-0--------------------|


D5 A5 E5VII D5 A5
Q E Q E Q. Q. Q E Q E Q E Q E E E E E E E E E E E E E
| | | | | | | | | | | | | | | | | | | | | | | | |
o / / / / / o / / / / / / / / / / / / / / / / / /

PM PM PM PM
Q E Q E Q. Q. Q E Q E Q E Q E E E E E E E E E E E E E
|---------------------|---------------------|--------------------------|
|---------------------|---------------------|-3-3-3-3-3-3--------------|
|----9-9--9-7---------|----9-9--9----9-9--9-|-2-2-2-2-2-2-2-2-2-2-2-2--|
|----9-9--9-7----7----|----9-9--9----9-9--9-|-0-0-0-0-0-0-2-2-2-2-2-2--|
|----7-7--7-5----7----|----7-7--7----7-7--7-|-------------0-0-0-0-0-0--|
|-0--------------5----|-0-------------------|--------------------------|


Gtr II
|-3-| |-3-| |---3----|
Q E E E E E Q E E E E E Q E E E E E E E E E E E
|-------------------------------|-------------------------------------------|
|-------------------------------|-------------------------------------------|
|-------------------------------|------------------------------2------------|
|----------------2--2-----------|--2---2------------------0-/4------------2-|
|--------4p2p0---------4p2p0----|-----------4p2p=====0------------0----/4---|
|--0--0--------4--------------4-|----------------------4--------------------|
|
| Gtr III
| Q E H. Q E Q Q +E Q. E Q.
|-12----12------------12--------|-12--15b17-----(15)-------------17b19r=====|
|----------------------------15-|-------------------------------------------|
|-------------------------------|-------------------------------------------|
|-------------------------------|-------------------------------------------|
|-------------------------------|-------------------------------------------|
|-------------------------------|-------------------------------------------|


|--3---| |-3--|
Q E E E E E Q E E E E E
|---------------------------------------------|
|---------------------------------------------|
|---------------------------------------------|
|------------------------2-----2--------------|
|-----------4p2p===0---------------4p=2p0-----|
|---0----0------------4-------------------4---|
|
| ~~
| +Q E E E E E E E +Q.
|-(17)--15-17---15------15--------------------|
|--------------------17-------15-(15)---------|
|--------------------------16-----------------|
|---------------------------------------------|
|---------------------------------------------|
|---------------------------------------------|


|-3--| |--3---| |--3---|
Q E E E E E E E E E E E Q E E E E E Q E E E E E
|-----------------------------------------|-------------------------------------------|
|-----------------------------------------|-------------------------------------------|
|--------------------------2--------------|-------------------------------------------|
|---2---2------------0-/4-----------2-----|----------------------2-----2--------------|
|-----------4p=2p0------------0-/4--------|----------4p===2p0-------------4p===2p0----|
|------------------4----------------------|---0---0-----------4---------------------4-|
|
| PM
| +Q. +Q. Q E Q E +Q. Q. Q. Q E
|-----------------------------------------|-------------------------------------------|
|-(15)----(15)------------12-15----15pb17r|=(15)--------------------------------------|
|-----------------------------------------|---------14b16-------14b16----14b16-----14-|
|-----------------------------------------|-------------------------------------------|
|-----------------------------------------|-------------------------------------------|
|-----------------------------------------|-------------------------------------------|


|--3---|
Q E E E E E E E E E E E
|--------------------------------------------------|
|--------------------------------------------------|
|-----------------------------------2--------------|
|--2-----2-------------------0--/4-------------2---|
|-----------4p===2p0--------------------0--/4------|
|---------------------4----------------------------|
|
| ~~~~~~~
| Q. Q Q +Q +Q E
|--------------------------------------------------|
|--------------------------------------------------|
|-14b16----14b16r====12b12.5---(12)---(12)----12---|
|--------------------------------------------------|
|--------------------------------------------------|
|--------------------------------------------------|


H. H.
|--3---| |----3----|
Q E E E E E Q E E E E E
|-------------------------------------------------------|
|-------------------------------------------------------|
|-------------------------------------------------------|
|------------------------------2------2-----------------|
|--------------4p2p===0------------------4p2p======0----|
|--0--------0------------4----------------------------4-|
|
| E E E E E E E E E E E E
|----------12------12-------------12--------------------|
|-------12----15--------------12-----15-12-----------12-|
|-14b16-----------------14b16----------------14b16------|
|-------------------------------------------------------|
|-------------------------------------------------------|
|-------------------------------------------------------|


A5
Gtr I
H. H. e E e e E e e E e e E e
| | | | | | | |
/ / / / / / / /

Gtr II
|--3---|
Q E E E E E Q. Q. E E E Q E +Q. Q E
|-----------------------------------------|---------5-------------------------------------|
|-----------------------------------------|------5-----7pb8r====8b10--(8)------8pb10r===5-|
|-----------------------------------------|--/6-------------------------------------------|
|--2------2---------------4----------5----|-----------------------------------------------|
|------------4p2p===0-----4----------5----|-----------------------------------------------|
|----------------------4--2----------3----|-----------------------------------------------|
|
| Gtr III
| ~~~~~~~
| E E E E E E Q. +Q. E E E Q E +Q. Q E
|-12--------------------------------------|-----------------------------------------------|
|-----15-12-------------------------------|--------14-------------------------------------|
|-----------14---12------12b12.5---(12)---|-----14----14pb16r==16b18-(16)-----16pb18r==14-|
|---------------------14------------------|-/14-------------------------------------------|
|-----------------------------------------|-----------------------------------------------|
|-----------------------------------------|-----------------------------------------------|


F#5 G5 G#5 A5
e E e Q E Q E Q E e E e e E e e E e e E e
| | | | | | | | | | | | | | | |
/ / / / / / / / / / / / / / / /

Q. Q Q. +Q. E E E E Q E +Q. Q E
|-----------------------------------|---------5-------------------------------------|
|--8b10------8b10---8------(8)------|------5-----7pb8r====8b10--(8)------8pb10r===5-|
|-----------------------------------|--/6-------------------------------------------|
|-----------------------------------|-----------------------------------------------|
|-----------------------------------|-----------------------------------------------|
|-----------------------------------|-----------------------------------------------|
|
| Q. Q Q. +Q. E E E E Q E +Q. Q E
|-----------------------------------|-----------------------------------------------|
|-----------------------------------|--------14-------------------------------------|
|-16b18-----16b18--16-----(16)------|-----14----14pb16r==16b18-(16)-----16pb18r==14-|
|-----------------------------------|-/14-------------------------------------------|
|-----------------------------------|-----------------------------------------------|
|-----------------------------------|-----------------------------------------------|


G#5 A5 Bb5
e E e Q E Q E Q E
| | | | | | | |
/ / / / / / / /

Q. Q Q. +Q. E
|------------------------------------|
|--8b10------8b10---8------(8)-------|
|------------------------------------|
|------------------------------------|
|------------------------------------|
|------------------------------------|
|
| Q. Q Q. +Q. E
|------------------------------------|
|------------------------------------|
|-16b18-----16b18--16-----(16)-------|
|------------------------------------|
|------------------------------------|
|------------------------------------|


B5 G#5 A5 Bb5
e E e e E e e E e e E e e E e Q E Q E Q E
| | | | | | | | | | | | | | | |
/ / / / / / / / / / / / / / / /

E E E Q E +Q. Q E Q. Q Q. +Q. E
|---------7-------------------------------------|-----------------------------------|
|------7-----9pb10r==10b12-(10)-----10pb12r===7-|-10b12-----10b12--10-----(10)------|
|--/8-------------------------------------------|-----------------------------------|
|-----------------------------------------------|-----------------------------------|
|-----------------------------------------------|-----------------------------------|
|-----------------------------------------------|-----------------------------------|
|
| E E E Q E +Q. Q E Q. Q Q. +Q. E
|-----------------------------------------------|-----------------------------------|
|--------16-------------------------------------|-----------------------------------|
|-----16----16pb18r==18b20-(18)-----18pb20r==16-|-18b20-----18b20--18-----(18)------|
|-/16-------------------------------------------|-----------------------------------|
|-----------------------------------------------|-----------------------------------|
|-----------------------------------------------|-----------------------------------|


B5
e E e e E e e E e e E e
| | | | | | | |
/ / / / / / / /

E E E Q E +Q. Q E
|---------7--------------------------------------|
|------7-----9pb10r==10b12-(10)-----10pb12r===7--|
|--/8--------------------------------------------|
|------------------------------------------------|
|------------------------------------------------|
|------------------------------------------------|
|
| E E E Q E +Q. Q E
|------------------------------------------------|
|--------16--------------------------------------|
|-----16----16pb18r==18b20-(18)-----18pb20r==16--|
|-/16--------------------------------------------|
|------------------------------------------------|
|------------------------------------------------|


G#5 A5 Bb5
e E e Q E Q E Q E
| | | | | | | |
/ / / / / / / /

Q. Q. Q. Q +E
|-10b12-----10b12----10b12----10b12--(10)-|
|-----------------------------------------|
|-----------------------------------------|
|-----------------------------------------|
|-----------------------------------------|
|-----------------------------------------|
|
| Q. Q. Q. Q +E
|-----------------------------------------|
|-19b21-----19b21----19b21----19b21--(19)-|
|-----------------------------------------|
|-----------------------------------------|
|-----------------------------------------|
|-----------------------------------------|


E5VII D5 A5
Q E Q. H. Q. Q. Q. Q.
| | |
/ / /

|-3-| |-3-| |-3-|
Q E E E E E Q E E E E E Q E E E E E Q. Q.
|-----------------------------|-------------------------|
|-----------------------------|---------------3---------|
|-----------------------------|---------------2----2----|
|---------------2---2---------|-2---2---------0----2----|
|-------4p2p0---------4p2p0---|-------4p2p0--------0----|
|-0---0-------4-------------4-|-------------4-----------|
|
| H. H. H. H.
|-----------------------------|-------------------------|
|-----------------------------|-------------------------|
|-----------------------------|-------------------------|
|-----------------------------|-------------------------|
|-----------------------------|-------------------------|
|-----------------------------|-------------------------|


E5VII
Q E Q. H. H. H.
|
/

~~~~~~~~~~~~~~
|-3-|
Q E E E E E H. +H. +H.
|-----------------------|-------------------|
|-----------------------|-------------------|
|-----------------------|-------------------|
|---------------2-------|-(2)------(2)------|
|-------4p2p0-----------|-------------------|
|-0---0-------4---------|-------------------|
|
| H. H. H. H.
|-----------------------|-------------------|
|-----------------------|-------------------|
|-----------------------|-------------------|
|-----------------------|-------------------|
|-----------------------|-------------------|
|-----------------------|-------------------|


E5
e E e e E e e E e e E e
| | | | | | | |
/ / / / / / / /

Q E +E E E +E Q. E E
|------17b19-(17)---20b22-(20)----------17pb19r=|
|-----------------------------------------------|
|-----------------------------------------------|
|-----------------------------------------------|
|-----------------------------------------------|
|-----------------------------------------------|
|
| H. H.
|-----------------------------------------------|
|-----------------------------------------------|
|-----------------------------------------------|
|-----------------------------------------------|
|-----------------------------------------------|
|-----------------------------------------------|


e E e e E e e E e e E e e E e e E e e E e e E e
| | | | | | | | | | | | | | | |
/ / / / / / / / / / / / / / / /

~~~
+Q E E E E E E E E E E Q. +Q E Q E Q E
|-(17)---15-17---15-14----------------|----------------------------------------|
|-------------------------15-15-------|----------------------------------------|
|----------------------------16s14-12-|-11------(11)-------12-------12---14b16-|
|-------------------------------------|----------------/14-------14------------|
|-------------------------------------|----------------------------------------|
|-------------------------------------|----------------------------------------|
|
| H. H. H. H.
|-------------------------------------|----------------------------------------|
|-------------------------------------|----------------------------------------|
|-------------------------------------|----------------------------------------|
|-------------------------------------|----------------------------------------|
|-------------------------------------|----------------------------------------|
|-------------------------------------|----------------------------------------|


e E e e E e e E e e E e
| | | | | | | |
/ / / / / / / /

+Q. E E Q. E Q E
|-------------------------------------------|
|----------15-------------------------------|
|-(14)----------14pb16r=====12-11---12------|
|-------------------------------------------|
|-------------------------------------------|
|-------------------------------------------|
|
| H. Q. Q E
|-------------------------------------------|
|-----------------------------------15b17r==|
|-------------------------------------------|
|-------------------------------------------|
|-------------------------------------------|
|-------------------------------------------|


e E e e E e e E e e E e
| | | | | | | |
/ / / / / / / /

~~~~
+W.
|----------------------------------------------------------|
|----------------------------------------------------------|
|-(12)-----------------------------------------------------|
|----------------------------------------------------------|
|----------------------------------------------------------|
|----------------------------------------------------------|
|
| +E +E +E +Q +E Q Q E +E
|----------------------------------------------------------|
|-(15)-(15)b17r(15)-(15)b17r==(15)-15b17r==12--------------|
|-----------------------------------------------14b16-(14)-|
|----------------------------------------------------------|
|----------------------------------------------------------|
|----------------------------------------------------------|


e E e e E e e E e e E e e E e e E e e E e e E e
| | | | | | | | | | | | | | | |
/ / / / / / / / / / / / / / / /

H. H. H. H.
|---------------------------------------|-----------------------------------------|
|---------------------------------------|-----------------------------------------|
|---------------------------------------|-----------------------------------------|
|---------------------------------------|-----------------------------------------|
|---------------------------------------|-----------------------------------------|
|---------------------------------------|-----------------------------------------|
|
| Q Q Q Q Q +E E Q. +Q. Q. +Q.
|-12----15---14---12-----------------12-|-----------------------------------------|
|-----------------------15b17---(15)----|-15b17-----(15)-----14pb16r====(14)------|
|---------------------------------------|-----------------------------------------|
|---------------------------------------|-----------------------------------------|
|---------------------------------------|-----------------------------------------|
|---------------------------------------|-----------------------------------------|


e E e e E e e E e e E e
| | | | | | | |
/ / / / / / / /

H. Q. Q E
|--------------------------------------------|
|------------------------------------------5-|
|--------------------------------------------|
|--------------------------------------------|
|--------------------------------------------|
|--------------------------------------------|
|
| ~~
| Q. +Q. +Q Q +E E
|--------------------------------------------|
|-12b14======(12)r====(12)-------------------|
|----------------------------12b13---(12)----|
|-----------------------------------------14-|
|--------------------------------------------|
|--------------------------------------------|


e E e e E e e E e e E e e E e e E e e E e e E e
| | | | | | | | | | | | | | | |
/ / / / / / / / / / / / / / / /

+E Q +Q. +Q. +Q E E Q E Q E Q Q E
|-------------------------------------|----------------------------|
|--(5)-7b9====(7)-----(7)r====(7)---3-|----3-----2------1----------|
|-------------------------------------|-4------3-----2------0------|
|-------------------------------------|-------------------------2--|
|-------------------------------------|----------------------------|
|-------------------------------------|----------------------------|
|
| +H. H. H. H.
|-------------------------------------|----------------------------|
|-------------------------------------|----------------------------|
|-------------------------------------|----------------------------|
|-(14)--------------------------------|----------------------------|
|-------------------------------------|----------------------------|
|-------------------------------------|----------------------------|


e E e e E e e E e e E e e E e e E e e E e e E e
| | | | | | | | | | | | | | | |
/ / / / / / / / / / / / / / / /

~~~~~~~~~~~~~~~~~~~~~
E Q. E E E E E Q E E E E E E E +H.
|--------------------------|-------------------------------|
|--------------------------|-----3-5-3-5-(5)---------------|
|----------0h2h3p2p0-----0-|-2s4---------------------------|
|-0h2----------------2-----|-------------------------------|
|--------------------------|-------------------------------|
|--------------------------|-------------------------------|
|
| H. H. H. Q. Q E
|--------------------------|-------------------------------|
|--------------------------|-------------------------15b17r|
|--------------------------|-------------------------------|
|--------------------------|-------------------------------|
|--------------------------|-------------------------------|
|--------------------------|-------------------------------|


e E e e E e e E e e E e
| | | | | | | |
/ / / / / / / /

~~~~~~
+H. H.
|--------------------------------------------|
|--(5)---------------------------------------|
|--------------------------------------------|
|--------------------------------------------|
|--------------------------------------------|
|--------------------------------------------|
|
| |---3----|
| +Q E Q. E E E E E E E
|--------------------------------------------|
|-(15)---12-15------12--15---12----12----12--|
|-------------------------------15----15-----|
|--------------------------------------------|
|--------------------------------------------|
|--------------------------------------------|


e E e e E e e E e e E e
| | | | | | | |
/ / / / / / / /

H. H.
|-------------------------------------------------------------------|
|-------------------------------------------------------------------|
|-------------------------------------------------------------------|
|-------------------------------------------------------------------|
|-------------------------------------------------------------------|
|-------------------------------------------------------------------|
|
| E E E E E E E E E E E E
|-------------------------------------------------------------------|
|---------12---------12---------12---------12---------12---------12-|
|-15b15.5----15b15.5----15b15.5----15b15.5----15b15.5----15b15.5----|
|-------------------------------------------------------------------|
|-------------------------------------------------------------------|
|-------------------------------------------------------------------|


e E e e E e e E e e E e e E e e E e e E e e E e
| | | | | | | | | | | | | | | |
/ / / / / / / / / / / / / / / /

Q. +Q E Q. +Q +E E E E E Q Q +Q. E
|---------------------------------------------|--------16-17-17---17b19r==(17)-----15--|
|-19b21-----(19)---17-19pb21======(19)r==(19)-|-17--20---------------------------------|
|---------------------------------------------|----------------------------------------|
|---------------------------------------------|----------------------------------------|
|---------------------------------------------|----------------------------------------|
|---------------------------------------------|----------------------------------------|
|
| H. H. H. Q. Q E
|---------------------------------------------|------------------------------------15--|
|---------------------------------------------|----------------------------------------|
|---------------------------------------------|----------------------------------------|
|---------------------------------------------|----------------------------------------|
|---------------------------------------------|----------------------------------------|
|---------------------------------------------|----------------------------------------|


e E e e E e e E e e E e
| | | | | | | |
/ / / / / / / /

+Q E Q. H.
|-(15)\----------------------------------------------|
|----------------------------------------------------|
|----------------------------------------------------|
|----------------------------------------------------|
|----------------------------------------------------|
|----------------------------------------------------|
|
| E E E E E E E E E E E E
|--------15-15-15--------15-15--------15-15-------15-|
|--18b20-----------18b20--------18b20-------18b20----|
|----------------------------------------------------|
|----------------------------------------------------|
|----------------------------------------------------|
|----------------------------------------------------|


e E e e E e e E e e E e e E e e E e e E e e E e
| | | | | | | | | | | | | | | |
/ / / / / / / / / / / / / / / /

H. H. E E E E E E E E E Q E
|-----------------------------------------------|------------------------------------------|
|-----------------------------------------------|------------------------------------------|
|-----------------------------------------------|-14-------14--------14--------14b16---12--|
|-----------------------------------------------|-14-12----14-----12-14--12----14b16---12--|
|-----------------------------------------------|-------14-----14-----------14-------------|
|-----------------------------------------------|------------------------------------------|
|
| E E E E E E E E E E E E Q E Q. H.
|-15--15-------15-15-15-------15-15-------15-15-|-15---------------------------------------|
|--------18b20----------18b20-------18b20-------|------------------------------------------|
|-----------------------------------------------|------------------------------------------|
|-----------------------------------------------|------------------------------------------|
|-----------------------------------------------|------------------------------------------|
|-----------------------------------------------|------------------------------------------|


e E e e E e e E e e E e
| | | | | | | |
/ / / / / / / /

|--3--|
+Q. Q. E E E E Q.
|----------------------------------|
|----------5------3h5p==3p0--------|
|-(12)----------------------0------|
|-(12)-----------------------------|
|----------------------------------|
|----------------------------------|
|
| H. H.
|----------------------------------|
|----------------------------------|
|----------------------------------|
|----------------------------------|
|----------------------------------|
|----------------------------------|


E Q Q. H. E Q Q. H.
| |
/ /

\1
H. H. W.
|-----------------------------------|------------------|
|-----------------------------------|-0----------------|
|-----------------------------------|------------------|
|-----------------------------------|------------------|
|-----------------------------------|------------------|
|-----------------------------------|------------------|
|
| E Q Q. E E E Q. H. H.
|-------12--------------------------|------------------|
|-----------15b17---15--12----------|------------------|
|-14b16--------------------14-12----|------------------|
|-----------------------------------|------------------|
|-----------------------------------|------------------|
|-----------------------------------|------------------|


E Q Q. H.
|
/

H. H.
|-----------------------------------|
|-----------------------------------|
|-----------------------------------|
|-----------------------------------|
|-----------------------------------|
|-----------------------------------|
|
| E E E E E E E E E E E E
|-----------------------------------|
|------5------10--------14-------19-|
|----3------8--------12-------17----|
|-2------7-------11--------16-------|
|-----------------------------------|
|-----------------------------------|
|
| Gtr IV
| H. H.
|-----------------------------------|
|-----------------------------------|
|-----------------------------------|
|-----------------------------------|
|-----------------------------------|
|-----------------------------------|


E5 E5
W. e E e e E e e E e e E e
| | | | | | | | |
/ / / / / / / / /

W. E E E E E E H.
|------------------|-10--8-7----------------------------|
|------------------|---------10-8-7---------------------|
|--9---------------|------------------------------------|
|--9---------------|------------------------------------|
|--7---------------|------------------------------------|
|------------------|------------------------------------|
|
| W. H. E E E E E E
|------------------|----------------15--14-12-----------|
|-15\--------------|--------------------------15-13-12--|
|------------------|------------------------------------|
|------------------|------------------------------------|
|------------------|------------------------------------|
|------------------|------------------------------------|
|
| H. H. H. H.
|------------------|------------------------------------|
|------------------|------------------------------------|
|------------------|------------------------------------|
|------------------|------------------------------------|
|------------------|------------------------------------|
|------------------|------------------------------------|


e E e e E e e E e e E e e E e e E e e E e e E e
| | | | | | | | | | | | | | | |
/ / / / / / / / / / / / / / / /

H. E E E E E E E E E E E E H.
|--------------10--8--7----------|-10--8-7---------------------------|
|-----------------------10--8--7-|---------10-8-7--------------------|
|--------------------------------|-----------------------------------|
|--------------------------------|-----------------------------------|
|--------------------------------|-----------------------------------|
|--------------------------------|-----------------------------------|
|
| H. E E E E E E H. E E E E E E
|--------------15-14-12----------|----------------15--14-12----------|
|-----------------------15-13-12-|--------------------------15-13-12-|
|--------------------------------|-----------------------------------|
|--------------------------------|-----------------------------------|
|--------------------------------|-----------------------------------|
|--------------------------------|-----------------------------------|
|
| E E E E E E E E E E E E H. H.
|-7--5-3--------7--5--3----------|-----------------------------------|
|--------7-5-3-----------7--5--3-|-----------------------------------|
|--------------------------------|-----------------------------------|
|--------------------------------|-----------------------------------|
|--------------------------------|-----------------------------------|
|--------------------------------|-----------------------------------|


e E e e E e e E e e E e
| | | | | | | |
/ / / / / / / /

H. E E E E E E
|--------------10--8--7-----------|
|-----------------------10--8--7--|
|---------------------------------|
|---------------------------------|
|---------------------------------|
|---------------------------------|
|
| H. E E E E E E
|--------------15-14-12-----------|
|-----------------------15-13-12--|
|---------------------------------|
|---------------------------------|
|---------------------------------|
|---------------------------------|
|
| E E E E E E E E E E E E
|-7--5-3--------7--5--3-----------|
|--------7-5-3-----------7--5--3--|
|---------------------------------|
|---------------------------------|
|---------------------------------|
|---------------------------------|


E5
e E e e E e e E e e E e
| | | | | | | |
/ / / / / / / /

E E E Q. Q. E E E
|-10--8-7------------------10--8--7-|
|-----------------------------------|
|-----------------------------------|
|-----------------------------------|
|-----------------------------------|
|-----------------------------------|
|
| Q. E E E Q. E E E
|---------15--14-12--------15-14-12-|
|-----------------------------------|
|-----------------------------------|
|-----------------------------------|
|-----------------------------------|
|-----------------------------------|
|
| Q. Q. E E E E E E
|-------------------7--5-3--7--5--3-|
|-----------------------------------|
|-----------------------------------|
|-----------------------------------|
|-----------------------------------|
|-----------------------------------|


E5
6/8
e E e e E e e E e e E e Q. Q E
| | | | | | | | | |
/ / / / / / / / / /

E E E Q. Q. E E E S E E S Q.
|-10--8-7------------------10--8--7-|-----(8)--(7)----------|
|-----------------------------------|-----------------------|
|-----------------------------------|-----------------------|
|-----------------------------------|-----------------------|
|-----------------------------------|-----------------------|
|-----------------------------------|-----------------------|
|
| Q. E E E Q. E E E S E E S Q.
|---------15--14-12--------15-14-12-|----(15)-(14)----------|
|-----------------------------------|-----------------------|
|-----------------------------------|-----------------------|
|-----------------------------------|-----------------------|
|-----------------------------------|-----------------------|
|-----------------------------------|-----------------------|
|
| Q. Q. E E E E E E S E E S Q.
|-------------------7--5-3--7--5--3-|-----(7)--(5)----------|
|-----------------------------------|-----------------------|
|-----------------------------------|-----------------------|
|-----------------------------------|-----------------------|
|-----------------------------------|-----------------------|
|-----------------------------------|-----------------------|


12/8
+W. +W.
| |
/ /

- natural harmonic
[n] - artificial harmonic
n(n) - tapped harmonic
~ - vibrato
tr - trill
T - tap
TP - trem. picking
PM - palm muting
\n/ - tremolo bar dip; n = amount to dip
\n - tremolo bar down
n/ - tremolo bar up
/n\ - tremolo bar inverted dip
= - hold bend; also acts as connecting device for hammers/pulls
- volume swell (louder/softer)
x - on rhythm slash represents muted slash
o - on rhythm slash represents single note slash

Misc Legend
-----------
| - bar
|| - double bar
||o - repeat start
o|| - repeat end
*| - double bar (ending)
: - bar (freetime)
$ - Segno
& - Coda
Tempo markers - = BPM(8/16=s8/s16), where s8 = swing 8ths, s16 = swing 16ths



--------------------------------------------------------------------------------

** Generated using Power Tab Editor by Brad Larsen: The Official Power Tab Web Site
Song info
Roller
April Wine
2001
  • Rock
  • Blues Rock
  • Hard Rock
Alternative tracks
Similar songs
Black Ice - AC/DC
The Good Die Young - Scorpions
Never Again - Nickelback
Too Fast For Love - Mötley Crüe

Hi! Hope you enjoy backing track experience.
If you want to help us in the development of the project, feel free to donate!