Slither - Velvet Revolver
00:00 / 00:00
Tabs and lyrics
Tunning: Standard (E A D G B e)
Slither- Velvet Revolver
Tabbed by Ray
Almost all of it accredited to Nero Hans

Drop D tuning


[Intro]

Intro guitar 2:
e|-------------------------|
B|-------------------------|
G|--------(slide)----------|
D|-17-/-/-/-/-/-/-/-/-/--1-|
A|-17-/-/-/-/-/-/-/-/-/--1-|
D|-17-/-/-/-/-/-/-/-/-/--1-|

Intro guitar 1:
e|----------------------------|
B|----------------------------|
G|-7-------5-------4-------2--|
D|-7-------5-------4-------0--|
A|-5-------3-------2-------0--|
D|----------------------------|

Intro part 2 guitar 2
e|--------------------------------------------------------------------|
B|--------------------------------------------------------------------|
G|--------------------------------------------------------------------|
D|--------------------------------------------------------------------|
A|-0-3-4-6-7-0-10-x-6-7-0-5-3-4---------------------------------------|
D|-0-3-4-6-7-0-10-x-6-7-0-5-3-4---------------------------------------|

Guitar 1 that comes in after guitar 2 plays intro 3x
e|--------------8-----------------------------------------------------|
B|---6-7---9-10---9-10---8---6----------------------------------------|
G|-7-----7-------------7---7------------------------------------------|
D|--------------------------------------------------------------------|
A|--------------------------------------------------------------------|
D|--------------------------------------------------------------------|


[Verse]

Verse both guitars: (palm mutted)
e|-----------------------------------|
B|-----------------------------------|
G|-----------------------------------|
D|-----------------------------------|
A|-----------------------------------|
D|--0-3-4-0-6-7-0-10-0-7-6-0-5-0-3-4-| 3x then guitar 1 plays..

e|-------------------------------|
B|-------------------------------|
G|---------------5(HB)-----------|
D|-0-3-4-0-6-7-0---7-6-0-5-0-3-4-|
A|-------------------------------|
D|-------------------------------|


[Chorus]

Chorus guitar 1
e|---------------------------|
B|---------------------------|
G|-------------5-------------|
D|-0-3-4-6-7-0---6-7-0-5-3-4-|
A|---------------------------|
D|---------------------------|

Chorus guitar 2
e|--------------------|
B|--------------------|
G|--7----5----4----5--|
D|--7----5----4----5--|
A|--5----3----2----3--|
D|--------------------|

Repeat intro part 2, verse, and chorus


Pre solo is the same as intro part 1


[Solo]

E|-----------10--------------10--------------10--------------10-------|
B|-13(FB)(v)----10-13(FB)(v)----10-13(FB)(v)----10-13(FB)(v)----10----|
G|--------------------------------------------------------------------|
D|--------------------------------------------------------------------|
A|--------------------------------------------------------------------|
D|--------------------------------------------------------------------|

E|--------------------------------------------------------------------|
B|-15(FB)(v)----15(FB)(v)-(12)-15(HB)-15(HB)-15(HB)-15(FB15)----------|
G|-----------14-------------------------------------------------------|
D|--------------------------------------------------------------------|
A|--------------------------------------------------------------------|
D|--------------------------------------------------------------------|

E|---------------------15(HB15)-15(HB15)-15(HB)-15-14-15-14(HB)14-12-14-12-|
B|-13----15(HB)(v)-13------------------------------------------------------|
G|----14-------------------------------------------------------------------|
D|-------------------------------------------------------------------------|
A|-------------------------------------------------------------------------|
D|-------------------------------------------------------------------------|

E|----12--------------------------------------------------------------|
B|-15----13-15-12-13----12--------13----------------------------------|
G|-------------------14----12(HB)----12(REL)-10----12-10-------12(HB)-|
D|----------------------------------------------12-------12-10--------|
A|--------------------------------------------------------------------|
D|--------------------------------------------------------------------|

E|-10-----------10----------------------------------------------------|
B|----10-13(HB)----10---------------10-13-----------------------------|
G|--------------------12(HB12HB)(v)-----------------------------------|
D|--------------------------------------------------------------------|
A|--------------------------------------------------------------------|
D|--------------------------------------------------------------------|

E|-------------------------------------------------------------------------|
B|--------10-13--------10-13--------10-13---------------10-13--------10-13-|
G|-12(HB)-------12(HB)-------12(HB)-------12(HB)-12(HB)-------12(HB)-------|
D|-------------------------------------------------------------------------|
A|-------------------------------------------------------------------------|
D|-------------------------------------------------------------------------|

E|--------10--------------10--------|
B|-13(HB)----13-10-----------13-10--|
G|-----------------12(HB)-----------|
D|----------------------------------|
A|----------------------------------|
D|----------------------------------|

E|--------10--------------10--------|
B|-13(HB)----13-10-----------13-10--|
G|-----------------12(HB)-----------|
D|----------------------------------|
A|----------------------------------|
D|----------------------------------|

E|--------10--------------10--------|
B|-13(HB)----13-10-----------13-10--|
G|-----------------12(HB)-----------|
D|----------------------------------|
A|----------------------------------|
D|----------------------------------|

E|--------10--------------10--------13(HB)-13(HB)-13(v)-10--------------|
B|-13(HB)----13-10-----------13-10-------------------------13-10-13(HB)-|
G|-----------------12(HB)-----------------------------------------------|
D|----------------------------------------------------------------------|
A|----------------------------------------------------------------------|
D|----------------------------------------------------------------------|

E|-10------------------------------------------------------------------|
B|----13-10------------------------------------------------------------|
G|----------12(HB)10----12-10------------------------------------------|
D|-------------------12-------12---------------10/12~~~~~~~~~~~~-------|
A|-------------------------------12-11-10-8----------------------------|
D|------------------------------------------10-------------------------|


Repeat chorus both guitars

Chorus part 2 guitar 1:
E|-8-10-x-7-8---------------------------------------------------------|
B|------------x-10-x-9-10---8---6-7-----------------------------------|
G|------------------------7---7-----7---------------------------------|
D|--------------------------------------------------------------------|
A|--------------------------------------------------------------------|
D|--------------------------------------------------------------------|

Chorus part 2 guitar 2:
E|---------------------------------|
B|---------------------------------|
G|---------------------------------|
D|-3-5-x-2-3-x---------------------|
A|-3-5-x-2-3-x-7-0-6-7-0-5-0-3-4-0-|
D|-------------7-0-6-7-0-5-0-3-4-0-|


Repeat Chorus


[Solo while singing]

E|-12(FB)-10(v)-10-----------10---------------------------------------|
B|-----------------10-13(FB)----10-------------------13(FB)(v)~~~~~---|
G|---------------------------------12(HB12)-10-12-10------------------|
D|--------------------------------------------------------------------|
A|--------------------------------------------------------------------|
D|--------------------------------------------------------------------|

E|----18(FB)-18-17-15-------15----------------------------------------|
B|-15-----------------18-15----18-15----------------------------------|
G|-----------------------------------18-17-15-------17-15-------------|
D|--------------------------------------------17-15-------17-15-------|
A|--------------------------------------------------------------------|
D|--------------------------------------------------------------------|


Repeat intro part 2 and chorus part two


Guitar 1 end on: Guitar 2 end on:
e|----| e|----|
B|-7~-| B|----|
G|----| G|----|
D|----| D|----|
A|----| A|-0~-|
D|----| D|-0~-|

Enjoy



************************************

(FB)= Full bend,
(HB)= Half bend,
(v)= vibrato

************************************
Tunning: Standard (E A D G B e)
-------------------------------------------------------------------------------
SLITHER - Velvet Revolver
-------------------------------------------------------------------------------
Tabbed by: Salah Salem
Email:djphrut87@yahoo.com

Tuning: DADGBe (not standard like the heading)
Yes it's in Drop D not standard
This is pretty rough at the moment, so bear with me. I think the only thing missing is the solo,
so enjoy, and rock on my freaky amigos!!

/ slide up
\ slide down
h hammer-on
p pull-off
~ vibrato
+ harmonic
x Mute note
^ bend note

Intro
e|---------------------------------------------------------------------------|
B|---------------------------------------------------------------------------|
G|---7-7/10-7----------------------------------------------------------------|
D|---7-7/10-7--------repeat--------------------------------------------------|
A|---5-5/-8-5----------------------------------------------------------------|
E|---------------------------------------------------------------------------|

Verse just after intro and all choruses (guitar 1):
e|---------------------------------------------------------------------------|
B|---------------------------------------------------------------------------|
G|---------------------------------------------------------------------------|
D|---0-3-4-0-6-7-0-10-0-6-7-0-5-0-3-4----------------------------------------|
A|---0-3-4-0-6-7-0-10-0-6-7-0-5-0-3-4----------------------------------------|
E|---0-3-4-0-6-7-0-10-0-6-7-0-5-0-3-4----------------------------------------|

(Guitar 2) once:
e|-----------------------8---------------------------------------------------|
B|------------7---9-10-----9-10---8------------------------------------------|
G|-------7-10---7------7--------7---7-10-------------------------------------|
D|---------------------------------------------------------------------------|
A|---------------------------------------------------------------------------|
E|---------------------------------------------------------------------------|

Verse (During Weiland's singing):
(guitar 1)
e|---------------------------------------------------------------------------|
B|---------------------------------------------------------------------------|
G|---------------------------------------------------------------------------|
D|---------------------------------------------------------------------------|
A|---------------------------------------------------------------------------|
E|-----0-3-4-0-6-7-0-10-0-6-7-0-5-0-3-4--------------------------------------|
P.M..........................................................................
(guitar 2)
e|---------------------------------------------------------------------------|
B|---------------------------------------------------------------------------|
G|---------------------^^---------^------------------------------------------|
D|-------0-3-4-0-6-7-0-10-0-6-7-0-5p0-3-4------------------------------------|
A|---------------------------------------------------------------------------|
E|---------------------------------------------------------------------------|







Chorus (guitar 1):
e|---------------------------------------------------------------------------|
B|---------------------------------------------------------------------------|
G|---7--5--5--7--------------------------------------------------------------|
D|---7--5--5--7--------------------------------------------------------------|
A|---5--3--2--5--------------------------------------------------------------|
E|---------------------------------------------------------------------------|

Chorus (guitar 2)
e|---------------------------------------------------------------------------|
B|---------------------------------------------------------------------------|
G|---------------------------------------------------------------------------|
D|--------0-3-4-0-6-7-0-10-0-6-7-0-5-0-3-4-----------------------------------|
A|---------------------------------------------------------------------------|
E|---------------------------------------------------------------------------|

End Chorus with:
Guitar 1:
e|---------------------------------------------------------------------------|
B|---------------------------------------------------------------------------|
G|---------------------------------------------------------------------------|
D|---0-3-4-0-6-7-0-10-0-6-7-0-5-0-3-4----------------------------------------|
A|---0-3-4-0-6-7-0-10-0-6-7-0-5-0-3-4----------------------------------------|
E|---0-3-4-0-6-7-0-10-0-6-7-0-5-0-3-4----------------------------------------|

Guitar 2:
e|-----------------------8---------------------------------------------------|
B|------------7---9-10-----9-10---8------------------------------------------|
G|-------7-10---7------7--------7---7-10-------------------------------------|
D|---------------------------------------------------------------------------|
A|---------------------------------------------------------------------------|
E|---------------------------------------------------------------------------|


Beginning of solo:
e|---------------------------------------------------^^----------------------|
B|----------15-15-15-13-15--17-17-17-15-17--18-18-18-18----------------------|
G|---------------------------------------------------------------------------|
D|---------------------------------------------------------------------------|
A|---------------------------------------------------------------------------|
E|---------------------------------------------------------------------------|

This is my second tab I've ever made, so bear with me. I didn't tab out the solo cause
I'm not that good yet, but if u have it, and any corrections, I'd GREATLY appreciate it.
Rock on and enjoy this awesome song.. Oh yea u got a problem, E-mail me or Shut up.
Word to my home boy Moose and anyone who aspires to be like John Connelly
(if you don't know him, ask about him)!
Tunning: Standard (E A D G B e)
SLITHER
As recorded by Velvet Revolver
(From the 2004 Album CONTRABAND)

Words and Music by Slash, Scott Weiland, Duff McKagan, Dave Kushner, Matt Sorum
Transcribed by apocalymon75@hotmail.com
TUNING:DADGBe


[Intro]

Q=145
N.C.(D)
4/4

Wx8
e|--------|
B|--------|
G|--------|
D|--------|
A|--------|
E|--------|


N.C.(D)

H Q. E +W H Q. E +H. Q
e|-----------------|--------------------|----------------|-------------------|
B|-----------------|--------------------|----------------|-------------------|
G|-7-----10-----12-|-(12)---------------|-7-----10-----7-|-(7)-----------5---|
D|-x------x------x-|--------------------|-x------x-----x-|---------------x---|
A|-5------8-----10-|-(10)---------------|-5------8-----5-|-(5)-----------3---|
E|-----------------|--------------------|----------------|-------------------|
|
|
| PM PM-------------| PM PM-------------|
| H. E E E E E E E E E E H. E E E E E E E E E E
e|-----------------|--------------------|----------------|-------------------|
B|-----------------|--------------------|----------------|-------------------|
G|-7---------------|--------------------|-5--------------|-------------------|
D|-7---------------|--------------------|-5--------------|-------------------|
A|------------0--0-|---0--0-0-0-0-0-0-0-|------------0-0-|--0--0-0-0-0-0-0-0-|
E|------------0--0-|---0--0-0-0-0-0-0-0-|------------0-0-|--0--0-0-0-0-0-0-0-|


N.C.(D)
H Q. E +W
e|-----------------|--------------------|
B|-----------------|--------------------|
G|-7-----10-----12-|-(12)---------------|
D|-x------x------x-|--------------------|
A|-5------8-----10-|-(10)---------------|
E|-----------------|--------------------|
|
| PM PM-------------|
| H. E E E E E E E E E E
e|-----------------|--------------------|
B|-----------------|--------------------|
G|-4---------------|--------------------|
D|-5---------------|--------------------|
A|------------0--0-|---0--0-0-0-0-0-0-0-|
E|------------0--0-|---0--0-0-0-0-0-0-0-|


H Q. E +q E. E. E Q
e|----------------|----------------------||
B|----------------|----------------------||
G|-7----10------7-|-(7)------------------||
D|-x-----x------x-|----------------------||
A|-5-----8------5-|-(5)---x--(x)-(x)-----||
E|----------------|-------x--(x)-(x)-----||
|
| H +E E E E +E H Q.
e|----------------|----------------------||
B|----------------|----------------------||
G|-2----(2)-------|----------------------||
D|-0----(0)-------|----------------------||
A|----------0-0-0-|-(0)----------/7\-----||
E|----------0-0-0-|-(0)----------/7\-----||


[Main Riff]

$
N.C.(D)
E E E E E E E E E E E E E E E E 3x
e||-------------------|------------------||
B||o------------------|-----------------o||
G||-------------------|------------------||
D||-------------------|------------------||
A||o-0-3-4-0-6-7-0-10-|-0-6-7-0-5-0-3-4-o||
E||--0-3-4-0-6-7-0-10-|-0-6-7-0-5-0-3-4--||
|
|
| W W 3x
e||-------------------|------------------||
B||o------------------|-----------------o||
G||-------------------|------------------||
D||-------------------|------------------||
A||o------------------|-----------------o||
E||-------------------|------------------||


E E E E E E E E E E E E E E E E
e|------------------------|-------------------------||
B|------------------------|-------------------------||
G|------------------------|-------------------------||
D|------------------------|-------------------------||
A|--0--3--4--0-6--7--0-10-|--0-6--7--0--5--0--3--4--||
E|--0--3--4--0-6--7--0-10-|--0-6--7--0--5--0--3--4--||
|
| ~~~
| E E E E E E E E E E E E E E Q
e|------------------------|-------------------------||
B|-------------9-10----13-|----9-10-----------------||
G|----10-11---------------|------------12----10\----||
D|-12-------12------12----|-12------12----12--------||
A|------------------------|-------------------------||
E|------------------------|-------------------------||


[Verse]

N.C.(D)
PM---------------------------| PM---------------------------|
E E E E E E E E E E E E E E E E E E E E E E E E E E E E E E E E
e|------------------|-----------------|------------------|-----------------|
B|------------------|-----------------|------------------|-----------------|
G|------------------|-----------------|------------------|-----------------|
D|------------------|-----------------|------------------|-----------------|
A|------------------|-----------------|------------------|-----------------|
E|-0-3-4-0-6-7-0-10-|-0-6-7-0-5-0-3-4-|-0-3-4-0-6-7-0-10-|-0-6-7-0-5-0-3-4-|


N.C.(D)
PM---------------------------|
E E E E E E E E E E E E E E E E E E E E E E E E E E E E E E E E
e|------------------|-----------------|-------------------|------------------|
B|------------------|-----------------|-------------------|------------------|
G|------------------|-----------------|-------------------|------------------|
D|------------------|-----------------|-------------------|------------------|
A|------------------|-----------------|-------------------|------------------|
E|-0-3-4-0-6-7-0-10-|-0-6-7-0-5-0-3-4-|-0-3-4-0-6-7-0--10-|-0-6-7-0--5-0-3-4-|
|
|
| PM-----------------------------| ~
| W W E E E E E E E E E E E E E E Q
e|------------------|-----------------|-------------------|------------------|
B|------------------|-----------------|-------------------|------------------|
G|------------------|-----------------|-------------------|------------------|
D|------------------|-----------------|-0-3-4-0-6-7-0-/10-|-0-6-7-0-/5-0-3---|
A|------------------|-----------------|-------------------|------------------|
E|------------------|-----------------|-------------------|------------------|


N.C.(D)
PM---------------------------| PM---------------------------|
E E E E E E E E E E E E E E E E E E E E E E E E E E E E E E E E
e|------------------|-----------------|------------------|-----------------|
B|------------------|-----------------|------------------|-----------------|
G|------------------|-----------------|------------------|-----------------|
D|------------------|-----------------|------------------|-----------------|
A|------------------|-----------------|------------------|-----------------|
E|-0-3-4-0-6-7-0-10-|-0-6-7-0-5-0-3-4-|-0-3-4-0-6-7-0-10-|-0-6-7-0-5-0-3-4-|


N.C.(D)
PM---------------------------|
E E E E E E E E E E E E E E E E
e|------------------|-----------------|
B|------------------|-----------------|
G|------------------|-----------------|
D|------------------|-----------------|
A|------------------|-----------------|
E|-0-3-4-0-6-7-0-10-|-0-6-7-0-5-0-3-4-|
|
|
| W W
e|------------------|-----------------|
B|------------------|-----------------|
G|------------------|-----------------|
D|------------------|-----------------|
A|------------------|-----------------|
E|------------------|-----------------|


E E E E E E E E E E E E E E Q
e|----------------------|-------------------||
B|----------------------|-------------------||
G|----------------------|-------------------||
D|----------------------|-------------------||
A|-0-3-4-0---6--7--0-10-|-0-6--7--0-5-0-3---||
E|-0-3-4-0---6--7--0-10-|-0-6--7--0-5-0-3---||
|
| H E E E E E E +H Q
e|----------------------|-------------------||
B|----------------------|-------------------||
G|---------/10-10-10-10-|---7-(7)-------5\--||
D|---------/10-10-10-10-|---7-(7)-------5\--||
A|----------------------|-------------------||
E|----------------------|-------------------||


[Chorus]

D5 C5
E E E E E E E E E E E E E E E E E E E E E E E E E E E E E E E E
e|------------------|-------------------|------------------|-------------------|
B|------------------|-------------------|------------------|-------------------|
G|------------------|-------------------|------------------|-------------------|
D|-0-3-4-0-6-7-0-10-|--0--6-7-0-5-0-3-4-|-0-3-4-0-6-7-0-10-|--0--6-7-0-5-0-3-4-|
A|------------------|-------------------|------------------|-------------------|
E|------------------|-------------------|------------------|-------------------|
|
|
| W +W W +W
e|------------------|-------------------|------------------|-------------------|
B|------------------|-------------------|------------------|-------------------|
G|-7----------------|-(7)---------------|-5----------------|-(5)---------------|
D|-7----------------|-(7)---------------|-5----------------|-(5)---------------|
A|-5----------------|-(5)---------------|-3----------------|-(3)---------------|
E|------------------|-------------------|------------------|-------------------|

D.S.
B5 D5
~~
E E E E E E E E E E E E E E E E E E E E E E E E E E E E E E Q
e|------------------|-------------------|------------------|-------------------||
B|------------------|-------------------|------------------|-------------------||
G|------------------|-------------------|------------------|-------------------||
D|-0-3-4-0-6-7-0-10-|--0--6-7-0-5-0-3-4-|-0-3-4-0-6-7-0-10-|--0--6-7-0-5-0-3\--||
A|------------------|-------------------|------------------|-------------------||
E|------------------|-------------------|------------------|-------------------||
|
| W +W W +W
e|------------------|-------------------|------------------|-------------------||
B|------------------|-------------------|------------------|-------------------||
G|-4----------------|-(4)---------------|-2----------------|-(2)---------------||
D|-4----------------|-(4)---------------|-0----------------|-(0)---------------||
A|-2----------------|-(2)---------------|-0----------------|-(0)---------------||
E|------------------|-------------------|-0----------------|-(0)---------------||


D5 C5
E E E E E E E E E E E E E E E E E E E E E E E E E E E E E E E E
e|------------------|-------------------|------------------|-------------------|
B|------------------|-------------------|------------------|-------------------|
G|------------------|-------------------|------------------|-------------------|
D|-0-3-4-0-6-7-0-10-|--0--6-7-0-5-0-3-4-|-0-3-4-0-6-7-0-10-|--0--6-7-0-5-0-3-4-|
A|------------------|-------------------|------------------|-------------------|
E|------------------|-------------------|------------------|-------------------|
|
| W +W W +W
e|------------------|-------------------|------------------|-------------------|
B|------------------|-------------------|------------------|-------------------|
G|-7----------------|-(7)---------------|-5----------------|-(5)---------------|
D|-7----------------|-(7)---------------|-5----------------|-(5)---------------|
A|-5----------------|-(5)---------------|-3----------------|-(3)---------------|
E|------------------|-------------------|------------------|-------------------|


B5 D5
E E E E E E E E E E E E E E E E E E E E E E E E E E E E E E E E
e|------------------|-------------------|------------------|-------------------||
B|------------------|-------------------|------------------|-------------------||
G|------------------|-------------------|------------------|-------------------||
D|-0-3-4-0-6-7-0-10-|--0--6-7-0-5-0-3-4-|-0-3-4-0-6-7-0-10-|--0--6-7-0-5-0-3-4-||
A|------------------|-------------------|------------------|-------------------||
E|------------------|-------------------|------------------|-------------------||
|
| W +W W +W
e|------------------|-------------------|------------------|-------------------||
B|------------------|-------------------|------------------|-------------------||
G|-4----------------|-(4)---------------|-2----------------|-(2)---------------||
D|-4----------------|-(4)---------------|-0----------------|-(0)---------------||
A|-2----------------|-(2)---------------|-0----------------|-(0)---------------||
E|------------------|-------------------|-0----------------|-(0)---------------||


[Breakdown]

D5 N.C.(D)
>
W +W W W 3x
e|----------|------------||-----------|-------||
B|----------|------------||o----------|------o||
G|-7--------|-(7)--------||-----------|-------||
D|-7--------|-(7)--------||-----------|-------||
A|-5--------|-(5)--------||o----------|------o||
E|----------|------------||-----------|-------||


[Guitar Solo]

D5

H. +E E +Q S S E +H
e|--------------------------------|--------------------------------------|
B|-13b15=============(13)r-13b15==|=(13)r---13p10-13b15====(13)r---------|
G|--------------------------------|--------------------------------------|
D|--------------------------------|--------------------------------------|
A|--------------------------------|--------------------------------------|
E|--------------------------------|--------------------------------------|
|
|
| PM| PM PM----|
| Q E S S E E E E +E E E S S E E E E
e|--------------------------------|--------------------------------------|
B|--------------------------------|--------------------------------------|
G|--------------------------------|--------------------------------------|
D|--7------7-----5-7--------7-----|--(7)-----7---------------5---7-7-----|
A|--5------5-5-5-5-5--------5-----|--(5)--5--5-----5-----5---5---5-5-0---|
E|--------------------------------|----------------------------------0---|
|
|
| PM----| PM PM------------| PM|
| Q E E E E E E +Q E E E Q S S
e|--------------------------------|--------------------------------------|
B|--------------------------------|--------------------------------------|
G|--7--------------7--------7-----|--(7)-------------------------7-------|
D|--7--------------7--------7-----|--(7)-------------------------7-------|
A|--5------5-5---5-5---5----5-----|--(5)-----5-----5---------5---5---5-5-|
E|--------------------------------|--------------------------------------|


C5
H. +E E +Q Q Q Q
e|--------------------------------|-------------------------------------------|
B|-15b17=============(15)r-15b17==|=(15)r---15b17-----15b17.5---15b17.5-------|
G|--------------------------------|-------------------------------------------|
D|--------------------------------|-------------------------------------------|
A|--------------------------------|-------------------------------------------|
E|--------------------------------|-------------------------------------------|
|
| PM| PM PM|
| Q E S S E E E E +E E E S S E E E E
e|--------------------------------|-------------------------------------------|
B|--------------------------------|-------------------------------------------|
G|--------------------------------|-------------------------------------------|
D|--5------5-----3-5--------5-----|--(5)-----5---------3------5--5------------|
A|--3------3-3-3-3-3--------3-----|--(3)--3--3----3-3--3------3--3------0-----|
E|--------------------------------|-------------------------------------0-----|
|
| PM----| PM PM-------| PM|
| Q E E E E E E +Q E E E Q S S
e|--------------------------------|-------------------------------------------|
B|--------------------------------|-------------------------------------------|
G|--5--------------5--------5-----|--(5)----------------------5---------------|
D|--5--------------5--------5-----|--(5)----------------------5---------------|
A|--3------3-3---3-3---3----3-----|--(3)-----3----3----3------3---------3-3---|
E|--------------------------------|-------------------------------------------|


B5
|---3---|
Q E S S Q +E. S E
e|-----------------------------------15b17==|
B|-15b18===15r15p13h==15---(15)---13--------|
G|------------------------------------------|
D|------------------------------------------|
A|------------------------------------------|
E|------------------------------------------|
|
| PM---|
| Q E S S E E E E
e|------------------------------------------|
B|------------------------------------------|
G|------------------------------------------|
D|--5-------5------------5---5--------5-----|
A|--2-------2--2----2----2---2--------2-----|
E|------------------------------------------|
|
| PM-----------| PM
| Q E E E E E E
e|------------------------------------------|
B|------------------------------------------|
G|--4------------------------4--------4-----|
D|--4------------------------4--------4-----|
A|--2-------2--2---------2---2--2-----2-----|
E|------------------------------------------|


+E +S +E +S +Q. +S +S S S
e|-(15)r(15)b17==(15)r==(15)b17==(15)-------(15)r(15)-14-15-|
B|----------------------------------------------------------|
G|----------------------------------------------------------|
D|----------------------------------------------------------|
A|----------------------------------------------------------|
E|----------------------------------------------------------|
|
| PM PM-|
| E E E S S E E E E
e|----------------------------------------------------------|
B|----------------------------------------------------------|
G|----------------------------------------------------------|
D|---5----------------5-----------------5-5---5-------------|
A|---2----2-----------2------------2--2-3-3---3--------0----|
E|-----------------------------------------------------0----|
|
| PM----------------| PM|
| Q E E E Q S S
e|----------------------------------------------------------|
B|----------------------------------------------------------|
G|---4------------------------------------4-----------------|
D|---4------------------------------------4-----------------|
A|---2----------------2------------2----2-2------------2--2-|
E|----------------------------------------------------------|


D5
|---3---| |--3--|
S S S S S S S S S S S S S S S S S S
e|-15p14p12-14p12s==10-12p10----------10-------------------|
B|---------------------------13p12h13----13p12p10-------10-|
G|------------------------------------------------12-13----|
D|---------------------------------------------------------|
A|---------------------------------------------------------|
E|---------------------------------------------------------|
|
| PM|
| Q E S S E E E E
e|---------------------------------------------------------|
B|---------------------------------------------------------|
G|---------------------------------------------------------|
D|--7-------------7--------------5--------7-----------7----|
A|--5-------------5--------5--5--5--------5-----------5----|
E|---------------------------------------------------------|
|
| PM------------| PM
| Q E E E E E E
e|---------------------------------------------------------|
B|---------------------------------------------------------|
G|--7-------------------------------------7-----------7----|
D|--7-------------------------------------7-----------7----|
A|--5-------------5--------5-----5--------5-----5-----5----|
E|---------------------------------------------------------|


|----3-----| |---3---| |---3---|
E E E E E E E E E E +E
e|-----------------------------------------------------|
B|-----------------------------------------------------|
G|-12b14-12---11-12------10---12b14-12-10--------------|
D|------------------12----------------------12-(12)----|
A|-----------------------------------------------------|
E|-----------------------------------------------------|
|
| PM PM---|
| +E E E S S E E E E
e|-----------------------------------------------------|
B|-----------------------------------------------------|
G|-----------------------------------------------------|
D|-(7)------------7------------5-----7----7------------|
A|-(5)------5-----5----5----5--5-----5----5------0-----|
E|-----------------------------------------------0-----|
|
| PM----------| PM-|
| +Q E E E Q S S
e|-----------------------------------------------------|
B|-----------------------------------------------------|
G|-(7)-------------------------------7-----------------|
D|-(7)-------------------------------7-----------------|
A|-(5)------------5----5-------5-----5-----------5--5--|
E|-----------------------------------------------------|


D5
Q +Q S S S S S S S S
e|---------------------------------------------------|
B|---------------------------10h13p10-------10h13p10-|
G|-12pb13r=(12)b14-----12b14----------12b14----------|
D|---------------------------------------------------|
A|---------------------------------------------------|
E|---------------------------------------------------|
|
| PM|
| Q E S S E E E E
e|---------------------------------------------------|
B|---------------------------------------------------|
G|---------------------------------------------------|
D|--7--------7----------7--------7--------------7----|
A|--5--------5-----5-5--5--------5--------------5----|
E|---------------------------------------------------|
|
| PM--------| PM
| Q E E E E E E
e|---------------------------------------------------|
B|---------------------------------------------------|
G|--7----------------------------7--------------7----|
D|--7----------------------------7--------------7----|
A|--5--------5-----5----5--------5-----5--------5----|
E|---------------------------------------------------|


S S S S S S S S S S S S S S S S
e|-------------------------------------------------------------|
B|-------10h13p10-------10h13p10-------10h13p10-------10h13p10-|
G|-12b14----------12b14----------12b14----------12b14----------|
D|-------------------------------------------------------------|
A|-------------------------------------------------------------|
E|-------------------------------------------------------------|
|
| PM PM|
| +E E E S S E E Q
e|-------------------------------------------------------------|
B|-------------------------------------------------------------|
G|-------------------------------10-------10----10\------------|
D|-(7)-------------7--------------x--------x-----x-------------|
A|-(5)-------5-----5--------5--5--8--------8-----8\------------|
E|-------------------------------------------------------------|
|
| PM------------| PM|
| +Q E E E Q S S
e|-------------------------------------------------------------|
B|-------------------------------------------------------------|
G|-(7)-------------------------------------7-------------------|
D|-(7)-------------------------------------7-------------------|
A|-(5)-------------5--------5-----5--------5--------------5--5-|
E|-------------------------------------------------------------|


C5
S S S S S S S S S S S S S S S S
e|-------------------------------------------------------------|
B|-------10h13p10-------10h13p10-------10h13p10-------10h13p10-|
G|-12b14----------12b14----------12b14----------12b14----------|
D|-------------------------------------------------------------|
A|-------------------------------------------------------------|
E|-------------------------------------------------------------|
|
| PM|
| Q E S S E E E E
e|-------------------------------------------------------------|
B|-------------------------------------------------------------|
G|-------------------------------------------------------------|
D|--5--------------5--------------3--------5--------------5----|
A|--3--------------3--------3--3--3--------3--------------3----|
E|-------------------------------------------------------------|
|
| PM------------| PM
| Q E E E E E E
e|-------------------------------------------------------------|
B|-------------------------------------------------------------|
G|--5--------------------------------------5--------------5----|
D|--5--------------------------------------5--------------5----|
A|--3--------------3--------3-----3--------3-----3--------3----|
E|-------------------------------------------------------------|


S S S S S S S S Q E S S
e|----------------------------------------------------|
B|-------10h13p10-------10h13p10-13b15----13b15-13p10-|
G|-12b14----------12b14-------------------------------|
D|----------------------------------------------------|
A|----------------------------------------------------|
E|----------------------------------------------------|
|
| PM PM|
| +E E E S S E E Q
e|----------------------------------------------------|
B|----------------------------------------------------|
G|-------------------------------10----10-10\---------|
D|-(5)-------------5--------------x-----x--x----------|
A|-(3)-------3-----3--------3--3--8-----8--8\---------|
E|----------------------------------------------------|
|
| PM------------| PM|
| +Q E E E Q S S
e|----------------------------------------------------|
B|----------------------------------------------------|
G|-(5)----------------------------------5-------------|
D|-(5)----------------------------------5-------------|
A|-(3)-------------3--------3-----3-----3--------3--3-|
E|----------------------------------------------------|


B5
S S S S S S S S S S S S S S S S
e|-------10-------------10-------------10-------------10-------|
B|-13b15----13p10----------13p10-13b15----13p10----------13p10-|
G|----------------12b14-------------------------12b14----------|
D|-------------------------------------------------------------|
A|-------------------------------------------------------------|
E|-------------------------------------------------------------|
|
| PM|
| Q E S S E E E E
e|-------------------------------------------------------------|
B|-------------------------------------------------------------|
G|-------------------------------------------------------------|
D|--5--------------5--------------5--------5--------------5----|
A|--2--------------2--------2--2--2--------2--------------2----|
E|-------------------------------------------------------------|
|
| PM------------| PM
| Q E E E E E E
e|-------------------------------------------------------------|
B|-------------------------------------------------------------|
G|--4--------------------------------------4--------------4----|
D|--4--------------------------------------4--------------4----|
A|--2--------------2--------2-----2--------2-----2--------2----|
E|-------------------------------------------------------------|


C5
S S S S S S S S Q E E
e|-------10-------------10-------13b15----13b15-13---|
B|-13b15----13p10----------13p10---------------------|
G|----------------12b14------------------------------|
D|---------------------------------------------------|
A|---------------------------------------------------|
E|---------------------------------------------------|
|
| PM PM|
| E E E S S E E Q
e|---------------------------------------------------|
B|---------------------------------------------------|
G|-------------------------------10----10-10\--------|
D|--5--------------5--------------x-----x--x---------|
A|--2--------2-----2--------2--2--8-----8--8\--------|
E|---------------------------------------------------|
|
| PM------------| PM|
| Q E E E E +E S S
e|---------------------------------------------------|
B|---------------------------------------------------|
G|--4-----------------------------------5-(5)--------|
D|--4-----------------------------------5-(5)--------|
A|--2--------------2--------2-----3-----3-(3)----3-3-|
E|---------------------------------------------------|


D5
+Q E S S Q E E
e|-(13)b13.5--13p10------------------|
B|------------------10-13b15---------|
G|-----------------------------12p10-|
D|-----------------------------------|
A|-----------------------------------|
E|-----------------------------------|
|
| PM|
| Q E S S E E E E
e|-----------------------------------|
B|-----------------------------------|
G|-----------------------------------|
D|---7---------7--------5----7-----7-|
A|---5---------5--5--5--5----5-----5-|
E|-----------------------------------|
|
| PM------| PM
| Q E E E E E E
e|-----------------------------------|
B|-----------------------------------|
G|---7-----------------------7-----7-|
D|---7-----------------------7-----7-|
A|---5---------5--5-----5----5--5--5-|
E|-----------------------------------|


F5
S +S S S S S S S S S S S S S S S
e|----------------------------------------------------||
B|----------------------------------------------------||
G|-12b14r(12)p10----12p10-----------------------------||
D|---------------12-------12p10-12-10-----------------||
A|------------------------------------12-11-10s8-10-8-||
E|----------------------------------------------------||
|
| E E E E E E E E
e|----------------------------------------------------||
B|----------------------------------------------------||
G|-10---------10----10----10----10----10----10---10---||
D|--x----------x-----x-----x-----x-----x-----x----x---||
A|--8----------8-----8-----8-----8-----8-----8----8---||
E|----------------------------------------------------||
|
| PM|
| +E E E S S E E Q
e|----------------------------------------------------||
B|----------------------------------------------------||
G|-(7)------------------------------------------------||
D|-(7)--------10----10----------10----10----10--------||
A|-(5)---------8-----8-----8--8--8-----8-----8--------||
E|----------------------------------------------------||


[Verse]

N.C.(D)

E E E E E E E E E E E E E E E E
e|-------------------|--------------------|
B|-------------------|--------------------|
G|-------------------|--------------------|
D|-------------------|--------------------|
A|--0-3-4-0-6-7-0-10-|---0--6-7-0-5-0-3-4-|
E|--0-3-4-0-6-7-0-10-|---0--6-7-0-5-0-3-4-|
|
|
| ~~~~~~~~~~~~~~~~~~
| W +W
e|-------------------|--------------------|
B|-------------------|--------------------|
G|-------------------|--------------------|
D|-12----------------|-(12)---------------|
A|-------------------|--------------------|
E|-------------------|--------------------|


E E E E E E E E E E E E E E E E
e|---------------------|--------------------|
B|---------------------|--------------------|
G|---------------------|--------------------|
D|---------------------|--------------------|
A|---0--3-4-0-6-7-0-10-|---0--6-7-0-5-0-3-4-|
E|---0--3-4-0-6-7-0-10-|---0--6-7-0-5-0-3-4-|
|
| >
|~~~~~~~~~~~~~~~~~~~~~~~~~~~~
| +W +W
e|---------------------|--------------------|
B|---------------------|--------------------|
G|---------------------|--------------------|
D|-(12)----------------|-(12)---------------|
A|---------------------|--------------------|
E|---------------------|--------------------|


N.C.(D)
E E E E E E E E E E E E E E E E
e|------------------|-----------------|
B|------------------|-----------------|
G|------------------|-----------------|
D|------------------|-----------------|
A|-0-3-4-0-6-7-0-10-|-0-6-7-0-5-0-3-4-|
E|-0-3-4-0-6-7-0-10-|-0-6-7-0-5-0-3-4-|
|
| W W
e|------------------|-----------------|
B|------------------|-----------------|
G|------------------|-----------------|
D|------------------|-----------------|
A|------------------|-----------------|
E|------------------|-----------------|


E E E E E E E E E E E E E E E E
e|----------------------|----------------------||
B|----------------------|----------------------||
G|----------------------|----------------------||
D|----------------------|----------------------||
A|-0-10-12-0--7-10-0--7-|-0--6--7-0--5--0--3-4-||
E|-0-10-12-0--9-10-0--7-|-0--6--7-0--5--0--3-4-||
|
| E E E E E E E E E E E E E E Q
e|----------------------|----------------------||
B|---13-15---12-13------|----------------------||
G|-------------------14-|---13-14---12----10---||
D|----------------------|--------------12------||
A|----------------------|----------------------||
E|----------------------|----------------------||


[Out-Chorus]

D5 C5
Gtr I
E E E E E E E E E E E E E E E E E E E E E E E E E E E E E E E E
e|------------------|-------------------|------------------|-------------------|
B|------------------|-------------------|------------------|-------------------|
G|------------------|-------------------|------------------|-------------------|
D|-0-3-4-0-6-7-0-10-|--0--6-7-0-5-0-3-4-|-0-3-4-0-6-7-0-10-|--0--6-7-0-5-0-3-4-|
A|------------------|-------------------|------------------|-------------------|
E|------------------|-------------------|------------------|-------------------|
|
|
| W +W W +W
e|------------------|-------------------|------------------|-------------------|
B|------------------|-------------------|------------------|-------------------|
G|-7----------------|-(7)---------------|-5----------------|-(5)---------------|
D|-7----------------|-(7)---------------|-5----------------|-(5)---------------|
A|-5----------------|-(5)---------------|-3----------------|-(3)---------------|
E|------------------|-------------------|------------------|-------------------|


B5 D5
E E E E E E E E E E E E E E E E E E E E E E E E
e|------------------|-------------------|---------------------------------------|
B|------------------|-------------------|---------------------------------------|
G|------------------|-------------------|---------------------------------------|
D|-0-3-4-0-6-7-0-10-|--0--6-7-0-5-0-3-4-|--0-----3-4---0-----------6--7-0-10----|
A|------------------|-------------------|---------------------------------------|
E|------------------|-------------------|---------------------------------------|
|
| W +W W
e|------------------|-------------------|---------------------------------------|
B|------------------|-------------------|---------------------------------------|
G|-4----------------|-(4)---------------|--2------------------------------------|
D|-4----------------|-(4)---------------|--0------------------------------------|
A|-2----------------|-(2)---------------|--0------------------------------------|
E|------------------|-------------------|--0------------------------------------|
|
|
| |---3----|
| W W Q. +S +S S Q. E
e|------------------|-------------------|---------------------------------------|
B|------------------|-------------------|-15b18======(15)r(15)p13-15------13b15-|
G|------------------|-------------------|---------------------------------------|
D|------------------|-------------------|---------------------------------------|
A|------------------|-------------------|---------------------------------------|
E|------------------|-------------------|---------------------------------------|


E E E E E E E E
e|----------------------------------------|
B|----------------------------------------|
G|----------------------------------------|
D|---0---6--7-----0--5-----0-----3-----4--|
A|----------------------------------------|
E|----------------------------------------|
|
| +W
e|----------------------------------------|
B|----------------------------------------|
G|--(2)-----------------------------------|
D|--(0)-----------------------------------|
A|--(0)-----------------------------------|
E|--(0)-----------------------------------|
|
| +E E E E E E S S E
e|------10--------------------------------|
B|-(13)----13b15r10-----------------------|
G|------------------12b14-12b14-12p10-----|
D|------------------------------------12--|
A|----------------------------------------|
E|----------------------------------------|


D5
E E E E E E E E E E E E E E E E
e|-----------------------|---------------------|
B|-----------------------|---------------------|
G|-----------------------|---------------------|
D|--0-----3-4-0-6-7-0-10-|---0---6-7-0-5-0-3-4-|
A|-----------------------|---------------------|
E|-----------------------|---------------------|
|
| W +W
e|-----------------------|---------------------|
B|-----------------------|---------------------|
G|--7--------------------|--(7)----------------|
D|--7--------------------|--(7)----------------|
A|--5--------------------|--(5)----------------|
E|-----------------------|---------------------|
|
| >
| W +W
e|-----------------------|---------------------|
B|-13b15=================|=(13)r---------------|
G|-----------------------|---------------------|
D|-----------------------|---------------------|
A|-----------------------|---------------------|
E|-----------------------|---------------------|


C5
E E E E E E E E E E E E E E E E
e|------------------|-------------------|
B|------------------|-------------------|
G|------------------|-------------------|
D|-0-3-4-0-6-7-0-10-|--0--6-7-0-5-0-3-4-|
A|------------------|-------------------|
E|------------------|-------------------|
|
| W +W
e|------------------|-------------------|
B|------------------|-------------------|
G|-5----------------|-(5)---------------|
D|-5----------------|-(5)---------------|
A|-3----------------|-(3)---------------|
E|------------------|-------------------|
|
| W W
e|------------------|-------------------|
B|------------------|-------------------|
G|------------------|-------------------|
D|------------------|-------------------|
A|------------------|-------------------|
E|------------------|-------------------|


B5 D5
E E E E E E E E E E E E E E E E E E E E E E E E
e|------------------|-------------------|-------------------------|
B|------------------|-------------------|-------------------------|
G|------------------|-------------------|-------------------------|
D|-0-3-4-0-6-7-0-10-|--0--6-7-0-5-0-3-4-|--0----3-4-0--6--7--0-10-|
A|------------------|-------------------|-------------------------|
E|------------------|-------------------|-------------------------|
|
| W +W W
e|------------------|-------------------|-------------------------|
B|------------------|-------------------|-------------------------|
G|-4----------------|-(4)---------------|--2----------------------|
D|-4----------------|-(4)---------------|--0----------------------|
A|-2----------------|-(2)---------------|--0----------------------|
E|------------------|-------------------|--0----------------------|
|
| W W H E E E E
e|------------------|-------------------|-17b20-------17-15-13----|
B|------------------|-------------------|----------------------15-|
G|------------------|-------------------|-------------------------|
D|------------------|-------------------|-------------------------|
A|------------------|-------------------|-------------------------|
E|------------------|-------------------|-------------------------|


E E E E E E E E
e|----------------------------------------------||
B|----------------------------------------------||
G|----------------------------------------------||
D|--0----6-----7----0-----5----0-----3----4-----||
A|----------------------------------------------||
E|----------------------------------------------||
|
| +W
e|----------------------------------------------||
B|----------------------------------------------||
G|-(2)------------------------------------------||
D|-(0)------------------------------------------||
A|-(0)------------------------------------------||
E|-(0)------------------------------------------||
|
| |---3---| |---3---| |---3---| |---3---|
| E E E E E E E E E E E E
e|----------------------------------------------||
B|-13p10----------------------------------------||
G|---------12-12p10------10h12p==10-------------||
D|--------------------12------------12p10-------||
A|------------------------------------------12--||
E|----------------------------------------------||


[Outro]

N.C.(D)

E E E E E E E E E E E E E E E E E E E E E E E E
e|------------------------|------------------------|------------------------|
B|------------------------|------------------------|------------------------|
G|------------------------|------------------------|------------------------|
D|------------------------|------------------------|------------------------|
A|--0--3--4--0-6--7--0-10-|--0-6--7--0--5--0--3--4-|--0--3--4--0-6--7--0-10-|
E|--0--3--4--0-6--7--0-10-|--0-6--7--0--5--0--3--4-|--0--3--4--0-6--7--0-10-|
|
|
| E E E E E E E E E E E E E E E E E E E E E E E E
e|------------------------|------------------------|------------------------|
B|-------------9-10----13-|----9-10----------------|-------------9-10----13-|
G|----10-11---------------|------------12----10-11-|----10-11---------------|
D|-12-------12------12----|-12------12----12-------|-12-------12------12----|
A|------------------------|------------------------|------------------------|
E|------------------------|------------------------|------------------------|


N.C.(D)
E E E E E E E E E E E E E E E E E E E E E E E E
e|------------------------|------------------------|------------------------|
B|------------------------|------------------------|------------------------|
G|------------------------|------------------------|------------------------|
D|------------------------|------------------------|------------------------|
A|--0-6--7--0--5--0--3--4-|--0--3--4--0-6--7--0-10-|--0-6--7--0--5--0--3--4-|
E|--0-6--7--0--5--0--3--4-|--0--3--4--0-6--7--0-10-|--0-6--7--0--5--0--3--4-|
|
| E E E E E E E E E E E E E E E E E E E E E E E E
e|------------------------|------------------------|------------------------|
B|----9-10----------------|-------------9-10----13-|----9-10----------------|
G|------------12----10-11-|----10-11---------------|------------12----10-11-|
D|-12------12----12-------|-12-------12------12----|-12------12----12-------|
A|------------------------|------------------------|------------------------|
E|------------------------|------------------------|------------------------|


N.C.(D)
E E E E E E E E E E E E E E E E Q. E H
e|----------------------|----------------------|-------------*|
B|----------------------|----------------------|-------------*|
G|----------------------|----------------------|-------------*|
D|----------------------|----------------------|-------------*|
A|-0-10-12-0--7-10-0--7-|-0--6--7-0--5--0--3-4-|--0----------*|
E|-0-10-12-0--9-10-0--7-|-0--6--7-0--5--0--3-4-|--0----------*|
|
| E E E E E E E E E E E E E E Q Q. E H
e|----------------------|----------------------|-------------*|
B|---13-15---12-13------|----------------------|-------------*|
G|-------------------14-|---13-14---12----10---|-------------*|
D|----------------------|--------------12------|-12\---------*|
A|----------------------|----------------------|-------------*|
E|----------------------|----------------------|-------------*|


Duration Legend
---------------
W - whole; H - half; Q - quarter; E - 8th; S - 16th; T - 32nd; X - 64th; a - acciaccatura
+ - note tied to previous; . - note dotted; .. - note double dotted
Uncapitalized letters represent notes that are staccato (1/2 duration)
Irregular groupings are notated above the duration line
Duration letters will always appear directly above the note/fret number it represents the
duration for. Duration letters with no fret number below them represent rests. Multi-
bar rests are notated in the form Wxn, where n is the number of bars to rest for. Low
melody durations appear below the staff

Tablature Legend
----------------
h - hammer-on
p - pull-off
b - bend
pb - pre-bend
r - bend release (if no number after the r, then release immediately)
/\ - slide into or out of (from/to "nowhere")
s - legato slide
S - shift slide
- natural harmonic
[n] - artificial harmonic
n(n) - tapped harmonic
~ - vibrato
tr - trill
T - tap
TP - trem. picking
PM - palm muting
\n/ - tremolo bar dip; n = amount to dip
\n - tremolo bar down
n/ - tremolo bar up
/n\ - tremolo bar inverted dip
= - hold bend; also acts as connecting device for hammers/pulls
<> - volume swell (louder/softer)
x - on rhythm slash represents muted slash
o - on rhythm slash represents single note slash

Misc Legend
-----------
| - bar
|| - double bar
||o - repeat start
o|| - repeat end
*| - double bar (ending)
: - bar (freetime)
$ - Segno
& - Coda
Tempo markers - = BPM(8/16=s8/s16), where s8 = swing 8ths, s16 = swing 16ths
Tunning: Drop D (D A D G B E)
Title: Slither
Artist: Velvet Revolver
Album: Contraband
Tabber: Matt K

Tuning: Drop D
Guitar 1 - Lead - Slash
Guitar 2 - Rythym - Dave Kushner

Okay, this is my first tab, so let me know how I do and any corrections
or additions for the future. This is a kick ass song though and this has
some of the portions others have forgot (see Guitar 1 riff change in
Chorus). However, this is entirely from ear so it may not be 100%. Good luck


[INTRO: (0:14)]
Guitar 1 Repeat 3 times On fourth time
E|-------------------------------------------------|-----------------------|
B|-------------------------------------------------|-----------------------|
G|-------------------------------------------------|-----------------------|
D|-12-12-12-12-15-15-15-15-17-17-17-17-17-17-17-17-|-12(x4)-15(x4)-12------|
A|-------------------------------------------------|-----------------------|
D|-------------------------------------------------|-----------------------|

Guitar 2
E|-------------------------------------------------------------------------|
B|-------------------------------------------------------------3--3--------|
G|-------------------------------------------------------------2--2--------|
D|-7---x-x-x-x-x-x-x-x-5---x-x-x-x-x-x-x-x-5---x-x-x-x-x-x-x-x-0--0--/-15\-|
A|-5---x-x-x-x-x-x-x-x-3---x-x-x-x-x-x-x-x-2---x-x-x-x-x-x-x-x-0--0--/-15\-|
D|-------------------------------------------------------------0--0--------|


[PRE-VERSE: (0:27)]
Guitars 1&2 Play 4 Times
E|-------------------------------------------------------------------------|
B|-------------------------------------------------------------------------|
G|-------------------------------------------------------------------------|
D|---0--3--4--0-6-/7--0--10--0--6-/7--0--5--0--3--4------------------------|
A|---0--3--4--0-6-/7--0--10--0--6-/7--0--5--0--3--4------------------------|
D|---0--3--4--0-6-/7--0--10--0--6-/7--0--5--0--3--4------------------------|

Guitar 1 plays 4th time
E|-------------------------------------------------------------------------|
B|------------------------13-----------------------------------------------|
G|------10-11----13-14----------13-14----12----10-11-----------------------|
D|---12-------12-------12----12-------12----12-----------------------------|
A|-------------------------------------------------------------------------|
D|-------------------------------------------------------------------------|


[VERSE: (0:41)]
Guitars 1&2 Play 8 Times
E|-------------------------------------------------------------------------|
B|-------------------------------------------------------------------------|
G|-------------------------------------------------------------------------|
D|-------------------------------------------------------------------------|
A|---0--3--4--0-6-/7--0--10--0--6-/7--0--5--0--3--4------------------------|
D|---0--3--4--0-6-/7--0--10--0--6-/7--0--5--0--3--4------------------------|
PM[........................................]


[CHORUS: (1:08)]
Guitar 1
E|----------------------------------|--------------------------------------|
B|----------------------------------|--------------------------------------|
G|---------------5------------------|----------------5---------------------|
D|-0-3-4-0-6-7-0---0-6-7-0-5-0-3-4--|--0-4-5-0-5-7-0---0-5-7-0-5-0-4-5-----|
A|----------------------------------|--------------------------------------|
D|----------------------------------|--------------------------------------|

E|----------------------------------|--------------------------------------|
B|----------------------------------|--------------------------------------|
G|---------------5------------------|----------------5---------------------|
D|-0-3-4-0-5-7-0---0-7-9-0-5-0-5-4--|--0-3-4-0-6-7-0---0-6-7-0-5-0-3-4-----|
A|----------------------------------|--------------------------------------|
D|----------------------------------|--------------------------------------|

Guitar 2
E|---------------|---------------|--------------|--------------------------|
B|---------------|---------------|--------------|--------------------------|
G|---------------|---------------|--------------|-2------------------------|
D|--7------------|-5-------------|-5------------|-0------------------------|
A|--5------------|-3-------------|-2------------|-0------------------------|
D|---------------|---------------|--------------|-0------------------------|

PREVERSE 1x (1:22)
VERSE 1x (1:35)
CHORUS 2x (2:03)


[SOLO: (2:30)]
Guitar 1
E|------|------22b24r22~|~~------10-10-10-|-------------x------------------|
B|------|---------------|-----------------|--10~~~~~~~~-x------------------|
G|--7---|-\-------------|---10b-----------|--------------------------------|
D|--7---|-\-------------|-----------------|--------------------------------|
A|--5---|-\-------------|-----------------|--------------------------------|
D|------|---------------|-----------------|--------------------------------|

E|-10----10-----10----10----10-------10---|-12-----12-12-12----12b13==b==b=|
B|-13b15=b---10-13b15=b--10-13b15-10-13b15|-15b17===b==b==b----------------|
G|----------------------------------------|--------------------------------|
D|----------------------------------------|--------------------------------|
A|----------------------------------------|--------------------------------|
D|----------------------------------------|--------------------------------|

E|=12b13br12-10p8-8h10--15b17=b=b-14h15h14|-12-14p12\10-12p10--10-----------
B|---------------10---10------------------|------------------13--13p12p10---
G|----------------------------------------|---------------------------------
D|----------------------------------------|---------------------------------
A|----------------------------------------|---------------------------------
D|----------------------------------------|---------------------------------

E-----------------------------------------|-------------------------101010-|
B------10---------------10----------------|-10----10---(-----10-13)-13b15bb|
G-12b14==14r12-13p12p10-12b14r12-10-------|-12b14-12b14(12b14==b--)--------|
D------------------------------------12---|---------------6 times ^--------|
A-----------------------------------------|--------------------------------|
D-----------------------------------------|--------------------------------|

E|-10---------------10---1010-10---------------13b15=b=|r13-10p8h10-10p8----
B|-13b15-13p10------13b15=b=b-13b15-13p10--------------|----------------8h10
G|------------12p10----------------------12p10---------|--------------------
D|-----------------------------------------------------|--------------------
A|-----------------------------------------------------|--------------------
D|-----------------------------------------------------|--------------------

E--------------------------------------------------------------------------|
B-10/13p10-----------------------------------------------------------------|
G----------12p10------------7-10h12p10---7---------------------------------|
D---------------12p10\7-7h9------------------------------------------------|
A--------------------------------------------------------------------------|
D--------------------------------------------------------------------------|

Guitar 2: Play twice
E|--------------------|------------------|------------------|--------------|
B|--------------------|------------------|------------------|--------------|
G|-7-7--7--7-7-7-7--7-|5-5--5-5-5-5--5--5|------------------|--------------|
D|-7-7--7--7-7-7-7--7-|5-5--5-5-5-5--5--5|5-5--5--5-5-5-5--5|0-0-0-0-0-0-0-|
A|-5-5--5--5-5-5-5--5-|3-3--3-3-3-3--3--3|2-2--2--2-2-2-2--2|0-0-0-0-0-0-0-|
D|-0-0--0--0-0-0-0--0-|------------------|------------------|0-0-0-0-0-0-0-|


[PRECHORUS:]
Guitar 1
E|---------------|-------------|-------------|-8h10--7h8-------------------|
B|---------------|-------------|-------------|------------10-9h10--8--6b8--|
G|---7~~~~~~~~~~~~~~~~~~~~~~~~~~~~~~~~~~~~~--|-----------------------------|
D|---------------|-----------^-|-------------|-----------------------------|
A|---------------|-----feedback|-------------|-----------------------------|
D|---------------|-------------|-------------|-----------------------------|

Guitar 2 Play 3 times On 4th time
E|---------------------------------|---------------------------------------|
B|---------------------------------|---------------------------------------|
G|---------------------------------|---------------------------------------|
D|-0-3-4-0-6/7-0-10-0-6/7-0-5-0-3-4|-10--12--0--9--10--0--7--6/7--5--0--3b4|
A|-0-3-4-0-6/7-0-10-0-6/7-0-5-0-3-4|-10--12--0--9--10--0--7--6/7--5--0--3b4|
D|-0-3-4-0-6/7-0-10-0-6/7-0-5-0-3-4|-10--12--0--9--10--0--7--6/7--5--0--3b4|

CHORUS 2x


[CHORUS SOLO 1]
Guitar 1
E|-12b13-10--------------10----------------------------------------|-10----|
B|-------13b15=br13p10---13b15r13-10-------------------------------|-13b15~|
G|--------------------12----------12b14r12-10h12p10----------------|-------|
D|--------------------------------------------------12-10-----10-11|-------|
A|-------------------------------------------------------10h12-----|-------|
D|-----------------------------------------------------------------|-------|


[CHORUS SOLO 2]
E|---17b20-17-16-15--------------------------------------------------------|
B|-15---------------18b20r18-15--------------------------------------------|
G|------------------------------17p14--14----------------------------------|
D|-----------------------------------17--17-15h17p15--15-------------------|
A|--------------------------------------------------17--17-15--------------|
D|-----------------------------------------------------------18p17p15-12\--|


[OUTRO]
Guitar 1 Play 3 times
E|--------------------------------------|-8h10--7h8-----------------|------|
B|-----------------13-------------------|-----------10-9h10--8--6h8-|------|
G|---10-11--13-14------13-14--12--10-11-|---------------------------|-7~\--|
D|-12-----12-----12--12-----12--12------|---------------------------|------|
A|--------------------------------------|---------------------------|------|
D|--------------------------------------|---------------------------|------|

Guitar 2 Play 3 times
E|---------------------------------|--------------------------------|------|
B|---------------------------------|--------------------------------|------|
G|---------------------------------|--------------------------------|-7\---|
D|-0-3-4-0-6/7-0-10-0-6/7-0-5-0-3-4|-0-10-12-0-9-10-0-7--6/7-5-0-3-5|-7\---|
A|-0-3-4-0-6/7-0-10-0-6/7-0-5-0-3-4|-0-10-12-0-9-10-0-7--6/7-5-0-3-5|-5\---|
D|-0-3-4-0-6/7-0-10-0-6/7-0-5-0-3-4|-0-10-12-0-9-10-0-7--6/7-5-0-3-5|-0\---|


*****************************************************************

KEY

h - hammer on
p - pull off
b - bend
b== - sustain bend
b==b - bend, then hit bent note
r - release bend
br - bend, then release
~~ - vibrato
/ - slide up
\ - slide down
x - fret hand mute
PM - Palm mute

*****************************************************************
Tunning: Standard (E A D G B e)
check out my profile which has the link to my website for videos of me playing this song
you from the 26th march 2010 onwards

p.s.=pic slide
s/=slide up
s\=slide down
D= downstroke
U=upstroke
p.m.=malm mute
b=bend up

intro part1:
p.s.-------------|
|----------------|
|----------------|
|----------------|
|----------------|
|----------------|
|-x-x-x-x-x-x----|
Use of delay at about a quarter note with the wah wah pedal as well
Using your pic slide up and down on the E string whilst using the wah pedal

intro part 2:
|------------------------------------------------------------------------|
|------------------------------------------------------------------------|
|---7---7---7--7--s/--10-10--s/--12----12----7--7--7--s/--10--10--s\--7--|
|---x---X---x--X------X--X-------X------X----X--X--X-------X--X-------X--|
|---5---5---5--5--s/--8--8---s/--10----10----5--5--5--s/---8--8---s\--5--|
|------------------------------------------------------------------------|
D D U D / D D / D D D U D D U


verse part 1: (play 4 times)
|---------------------------------------------------------------------------|
|---------------------------------------------------------------------------|
|---------------------------------------------------------------------------|
|--0--3-4--0-6-7--0--10--0--6-7--0--5--0--3-s/-4----------------------------|
|--0--3-4--0-6-7--0--10--0--6-7--0--5--0--3-s/-4----------------------------|
|--0--3-4--0-6-7--0--10--0--6-7--0--5--0--3-s/-4----------------------------|

lead riff on the 4th repeat:

|----------------------------------------------------------------------|
|---------------9-10-----13----9-10------------------------------------|
|------10-11----------------------------12----10V----------------------|
|---12-------12-------12----12-------12--------------------------------|
|----------------------------------------------------------------------|
|----------------------------------------------------------------------|

Verse part 3: (Play 8 times)
P.M.------------------------------------------------------------------------|
|---------------------------------------------------------------------------|
|---------------------------------------------------------------------------|
|---------------------------------------------------------------------------|
|--0--3-4--0-6-7--0--10--0--6-7--0--5--0--3-s/-4----------------------------|
|--0--3-4--0-6-7--0--10--0--6-7--0--5--0--3-s/-4----------------------------|
|--0--3-4--0-6-7--0--10--0--6-7--0--5--0--3-s/-4----------------------------|


1st verse lead part on the 4th and 8th bar:

|------------------------------------------------------------------------|
|------------------------------------------------------------------------|
|------------------------------------------------------------------------|
|-0-3-4b--0-6-7b--0-10b--0-6-7b--0-3b--0--3------------------------------|
|------------------------------------------------------------------------|
|------------------------------------------------------------------------|


2nd verse lead part on the 4th bar
|----------------------------------------------------------------------|
|----------------------------------------------------------------------|
|----------------------------------------------------------------------|
|----------------------------------------------------------------------|
|----------------------------------------------------------------------|
|--0--3--4--0--6--7b--0--10b--0--6--7b--0--3b--0-3---------------------|


chorus chords:
play open and let them ring

|---3----3--------|---------------|-3------------|-----3--------------|
|---2----2--------|-3--------3----|-3------------|-----2--------------|
|---0----0--------|-0--------0----|-0------------|-----0--------------|
|---0----0--------|-2--------2----|-0------------|--------------------|
|---0----0--------|-3--------3----|-2------------|--------------------|
|---0----0--------|---------------|--------------|--------------------|
Song info
Slither
Velvet Revolver
2001
  • Rock
  • Hard Rock
  • Rock & Roll
Alternative tracks
Similar songs
All She Wrote - FireHouse
Humanity - Scorpions
Murder Inc - Bruce Springsteen
First It Giveth - Queens of the Stone Age

Hi! Hope you enjoy backing track experience.
If you want to help us in the development of the project, feel free to donate!